Song name
# A B C D E F G H I J K L M N O P Q R S T U V W X Y Z

Misc Unsigned Bands - Scarlet Grey - Mr Sinister tab

Title: Mr Sinister
Artist: Scarlet Grey
Album: Fancy Blood
Website: http://www.myspace.com/scarletgrey

Tabbed by Hazel (lezahtherock). Email: latetoo00@hotmail.com

Tuning: Standard


GUITAR 1
------------------------------------------------------------------------------------
INTRO/CHORUS RIFF:

e|-----------------|-----------------|-----------------|-----------------|
B|-----------------|-----------------|-----------------|-----------------|
G|-4-4-4-4-4-4-4-6-|-7-7-7-7-7-7-7-7-|-6-6-6-6-6-6-6-6-|-4-4-4-4-2-2-2-2-|
D|-4-4-4-4-4-4-4-6-|-7-7-7-7-7-7-7-7-|-7-7-7-7-7-7-7-7-|-5-5-5-5-2-2-2-2-|
A|-2-2-2-2-2-2-2-4-|-5-5-5-5-5-5-5-5-|-7-7-7-7-7-7-7-7-|-5-5-5-5-0-0-0-0-|
E|-----------------|-----------------|-5-5-5-5-5-5-5-5-|-3-3-3-3-0-0-0-0-|

e|-----------------|-----------------|-----------------|-----------------|----|
B|-----------------|-----------------|-----------------|-----------------|----|
G|-4-4-4-4-4-4-4-6-|-7-7-7-7-7-7-7-7-|-6-6-6-6-6-6-6-6-|-4-4-4-4-2-2-2-2-|-4~-|
D|-4-4-4-4-4-4-4-6-|-7-7-7-7-7-7-7-7-|-7-7-7-7-7-7-7-7-|-5-5-5-5-2-2-2-2-|-4~-|
A|-2-2-2-2-2-2-2-4-|-5-5-5-5-5-5-5-5-|-7-7-7-7-7-7-7-7-|-5-5-5-5-0-0-0-0-|-2~-|
E|-----------------|-----------------|-5-5-5-5-5-5-5-5-|-3-3-3-3-0-0-0-0-|----|

VERSE (doesn't play anything)

PRE-CHORUS ("Well this song's a smoke signal..."):

e|-----------------|-----------------|
B|-----------------|-----------------|
G|-----------------|-----------------|
D|-----------------|-----------------|
A|-2-2---4-5---0-0-|-2-2---4-5---0-0-|
E|-----------------|-----------------|

CHORUS RIFF: 

e|-----------------|-----------------|-----------------|-----------------|
B|-----------------|-----------------|-----------------|-----------------|
G|-4-4-4-4-4-4-4-6-|-7-7-7-7-7-7-7-7-|-6-6-6-6-6-6-6-6-|-4-4-4-4-2-2-2-2-|
D|-4-4-4-4-4-4-4-6-|-7-7-7-7-7-7-7-7-|-7-7-7-7-7-7-7-7-|-5-5-5-5-2-2-2-2-|
A|-2-2-2-2-2-2-2-4-|-5-5-5-5-5-5-5-5-|-7-7-7-7-7-7-7-7-|-5-5-5-5-0-0-0-0-|
E|-----------------|-----------------|-5-5-5-5-5-5-5-5-|-3-3-3-3-0-0-0-0-|

e|-----------------|-----------------|-----------------|-----------------|----|
B|-----------------|-----------------|-----------------|-----------------|----|
G|-4-4-4-4-4-4-4-6-|-7-7-7-7-7-7-7-7-|-6-6-6-6-6-6-6-6-|-4-4-4-4-2-2-2-2-|-4~-|
D|-4-4-4-4-4-4-4-6-|-7-7-7-7-7-7-7-7-|-7-7-7-7-7-7-7-7-|-5-5-5-5-2-2-2-2-|-4~-|
A|-2-2-2-2-2-2-2-4-|-5-5-5-5-5-5-5-5-|-7-7-7-7-7-7-7-7-|-5-5-5-5-0-0-0-0-|-2~-|
E|-----------------|-----------------|-5-5-5-5-5-5-5-5-|-3-3-3-3-0-0-0-0-|----|


VERSE (doesn't play anything)

PRE-CHORUS ("Well this song's a smoke signal..."):

e|-----------------|-----------------|
B|-----------------|-----------------|
G|-----------------|-----------------|
D|-----------------|-----------------|
A|-2-2---4-5---0-0-|-2-2---4-5---0-0-|
E|-----------------|-----------------|

CHORUS RIFF:  

e|-----------------|-----------------|-----------------|-----------------|
B|-----------------|-----------------|-----------------|-----------------|
G|-4-4-4-4-4-4-4-6-|-7-7-7-7-7-7-7-7-|-6-6-6-6-6-6-6-6-|-4-4-4-4-2-2-2-2-|
D|-4-4-4-4-4-4-4-6-|-7-7-7-7-7-7-7-7-|-7-7-7-7-7-7-7-7-|-5-5-5-5-2-2-2-2-| x3
A|-2-2-2-2-2-2-2-4-|-5-5-5-5-5-5-5-5-|-7-7-7-7-7-7-7-7-|-5-5-5-5-0-0-0-0-|
E|-----------------|-----------------|-5-5-5-5-5-5-5-5-|-3-3-3-3-0-0-0-0-|

e|-----------------|-----------------|-----------------|-----------------|----|
B|-----------------|-----------------|-----------------|-----------------|----|
G|-4-4-4-4-4-4-4-6-|-7-7-7-7-7-7-7-7-|-6-6-6-6-6-6-6-6-|-4-4-4-4-2-2-2-2-|-4~-|
D|-4-4-4-4-4-4-4-6-|-7-7-7-7-7-7-7-7-|-7-7-7-7-7-7-7-7-|-5-5-5-5-2-2-2-2-|-4~-|
A|-2-2-2-2-2-2-2-4-|-5-5-5-5-5-5-5-5-|-7-7-7-7-7-7-7-7-|-5-5-5-5-0-0-0-0-|-2~-|
E|-----------------|-----------------|-5-5-5-5-5-5-5-5-|-3-3-3-3-0-0-0-0-|----|


Right before it cuts into the chorus again, this chord is played:

e|----|
B|----|
G|-9\-|
D|-9\-|
A|-7\-|
E|----|

CHORUS RIFF:  

e|-----------------|-----------------|-----------------|-----------------|
B|-----------------|-----------------|-----------------|-----------------|
G|-4-4-4-4-4-4-4-6-|-7-7-7-7-7-7-7-7-|-6-6-6-6-6-6-6-6-|-4-4-4-4-2-2-2-2-|
D|-4-4-4-4-4-4-4-6-|-7-7-7-7-7-7-7-7-|-7-7-7-7-7-7-7-7-|-5-5-5-5-2-2-2-2-|  x4
A|-2-2-2-2-2-2-2-4-|-5-5-5-5-5-5-5-5-|-7-7-7-7-7-7-7-7-|-5-5-5-5-0-0-0-0-|
E|-----------------|-----------------|-5-5-5-5-5-5-5-5-|-3-3-3-3-0-0-0-0-|

OUTRO:

e|-----------------|
B|-----------------|
G|-4-4---6-7-------|
D|-4-4---6-7---7-7-| x4
A|-2-2---4-5---7-7-|
E|-------------5-5-|


GUITAR 2
------------------------------------------------------------------------------------
INTRO/CHORUS RIFF:

e|-----------------|-----------------|-----------------|-----------------|
B|-----------------|-----------------|-----------------|-----------------|
G|-4-4-4-4-4-4-4-6-|-7-7-7-7-7-7-7-7-|-6-6-6-6-6-6-6-6-|-4-4-4-4-2-2-2-2-|
D|-4-4-4-4-4-4-4-6-|-7-7-7-7-7-7-7-7-|-7-7-7-7-7-7-7-7-|-5-5-5-5-2-2-2-2-| x2
A|-2-2-2-2-2-2-2-4-|-5-5-5-5-5-5-5-5-|-7-7-7-7-7-7-7-7-|-5-5-5-5-0-0-0-0-| 
E|-----------------|-----------------|-5-5-5-5-5-5-5-5-|-3-3-3-3-0-0-0-0-|

VERSE:

e|-----------------|
B|-----------------|
G|-----------------|
D|-----------------|
A|-2-2---4-5---0-0-| x4  
E|-----------------|
PM . .   . .   . .

PRE-CHORUS ("Well this song's a smoke signal..."):

e|-----------------|-----------------|
B|-----------------|-----------------|
G|-----------------|-----------------|
D|-----------------|-----------------|
A|-2-2---4-5---0-0-|-2-2---4-5---0-0-|
E|-----------------|-----------------|

CHORUS:

e|-----------------|-----------------|-----------------|-----------------|
B|-----------------|-----------------|-----------------|-----------------|
G|-4-4-4-4-4-4-4-6-|-7-7-7-7-7-7-7-7-|-6-6-6-6-6-6-6-6-|-4-4-4-4-2-2-2-2-|
D|-4-4-4-4-4-4-4-6-|-7-7-7-7-7-7-7-7-|-7-7-7-7-7-7-7-7-|-5-5-5-5-2-2-2-2-| x2
A|-2-2-2-2-2-2-2-4-|-5-5-5-5-5-5-5-5-|-7-7-7-7-7-7-7-7-|-5-5-5-5-0-0-0-0-| 
E|-----------------|-----------------|-5-5-5-5-5-5-5-5-|-3-3-3-3-0-0-0-0-|

VERSE:

e|-----------------|
B|-----------------|
G|-----------------|
D|-----------------|
A|-2-2---4-5---0-0-| x4  
E|-----------------|
PM . .   . .   . .

PRE-CHORUS ("Well this song's a smoke signal..."):

e|-----------------|-----------------|
B|-----------------|-----------------|
G|-----------------|-----------------|
D|-----------------|-----------------|
A|-2-2---4-5---0-0-|-2-2---4-5---0-0-|
E|-----------------|-----------------|

CHORUS:

e|-----------------|-----------------|-----------------|-----------------|
B|-----------------|-----------------|-----------------|-----------------|
G|-4-4-4-4-4-4-4-6-|-7-7-7-7-7-7-7-7-|-6-6-6-6-6-6-6-6-|-4-4-4-4-2-2-2-2-|
D|-4-4-4-4-4-4-4-6-|-7-7-7-7-7-7-7-7-|-7-7-7-7-7-7-7-7-|-5-5-5-5-2-2-2-2-| x2
A|-2-2-2-2-2-2-2-4-|-5-5-5-5-5-5-5-5-|-7-7-7-7-7-7-7-7-|-5-5-5-5-0-0-0-0-| 
E|-----------------|-----------------|-5-5-5-5-5-5-5-5-|-3-3-3-3-0-0-0-0-|

SOLO:
listen for timing

e|-----------------|-----------------|-----------------|---------------------|
B|-----------3-----|-5---3-2---3-2---|-----------------|---------------------|
G|-4-4-4-2-4---4-2-|---------------2-|-4-4-4-2---------|-0h2-2p0---5-3-2-3-2-|
D|-----------------|-----------------|---------4-4-2-2-|---------2-----------|
A|-----------------|-----------------|-----------------|---------------------|
E|-----------------|-----------------|-----------------|---------------------|

e|-----------------|-----------------------------------------10-9-7~-|
B|-----------3---3-|-5h7p5-3-2-3-2-3-/5-3-5/7-5-7/8-7-8-10-8---------|
G|-4-4-4-2-4---4---|-------------------------------------------------|
D|-----------------|-------------------------------------------------|
A|-----------------|-------------------------------------------------|
E|-----------------|-------------------------------------------------|

CHORUS:

e|-----------------|-----------------|-----------------|-----------------|
B|-----------------|-----------------|-----------------|-----------------|
G|-4-4-4-4-4-4-4-6-|-7-7-7-7-7-7-7-7-|-6-6-6-6-6-6-6-6-|-4-4-4-4-2-2-2-2-|
D|-4-4-4-4-4-4-4-6-|-7-7-7-7-7-7-7-7-|-7-7-7-7-7-7-7-7-|-5-5-5-5-2-2-2-2-| x2
A|-2-2-2-2-2-2-2-4-|-5-5-5-5-5-5-5-5-|-7-7-7-7-7-7-7-7-|-5-5-5-5-0-0-0-0-| 
E|-----------------|-----------------|-5-5-5-5-5-5-5-5-|-3-3-3-3-0-0-0-0-|

FINAL SOLO:
listen for timing

e|-------------------------12------------------------------------------|
B|-12-12-12----12-15-12---------15-14---15-14----12-12-12----15-15-14--|
G|----------14----------14--------------------14----------14-----------|
D|---------------------------------------------------------------------|
A|---------------------------------------------------------------------|
E|---------------------------------------------------------------------|

e|-15-14--------------17171717-14141414-15151515-14141414-|
B|-------15-----------------------------------------------|
G|----------14-12-14~-------------------------------------|
D|--------------------------------------------------------|
A|--------------------------------------------------------|
E|--------------------------------------------------------|

e|-17171717-14141414-15151515-14141414--12-12/1414141414141414-----------------------|
B|-------------------------------------------------------------15---14-15-14----12~\-|
G|---------------------------------------------------------------------------14------|
D|-----------------------------------------------------------------------------------|
A|-----------------------------------------------------------------------------------|
E|-----------------------------------------------------------------------------------|

OUTRO: 
listen for when it's played

e|--------|
B|-8-7-5~-|
G|--------|
D|--------|
A|--------|
E|--------|

/   slide up
\   slide down
h   hammer-on
p   pull-off
~   vibrato
+   harmonic
x   Mute note
b   bend
r   release
Tap to rate this tab
 
# A B C D E F G H I J K L M N O P Q R S T U V W X Y Z