Misc Unsigned Bands - Flippityfloops Original Material - Monolith tab

MONOLITH TABS FOR BILLY AND ROBERT

CHORUS (Low End) (Tremelo)

e)--------------------------------------------|
B)--------------------------------------------|
G)--------------------------------------------|
D)--------------------------------------------|
A)-------2-3-2------------2-3-2-3-5-----------|
D)--2----------5---0---2------------5--7-0----|

----------------------------------------------|
----------------------------------------------|
----------------------------------------------|
----------------------------------------------|
------2-3-2------------2-3-2-3-5--------------|
-2----------5---0---2------------5-7-0-7------|

CHORUS PART 2 (Tremelo) (numbers grouped together are double digit frets)

e)--------------------------------------------------------------------------|
B)--------------------------------------------------------------------------|
C)--------------------------------------------------------------------------|
D)--------------------------------------------------------------------------|
A)--17-----13-15-12----15-13-12-10----13-12-10-8---7---5-----7-8-7---3---1--|
D)--------------------------------------------------------------------------|

-----------------------------------------------------------------------------|
-----------------------------------------------------------------------------|
-----------------------------------------------------------------------------|
---------------0-------------------------------------------------------------|
-4-3-1-0-------0--17-----13-15-12----15-13-12-10----13-12-10-8---7---5-----7-|
-----------5-3-0-------------------------------------------------------------|
               (Let Low D Ring)
                                   (Into Groove)
---------------------------------  -------------|
---------------------------------  -------------|
---------------------------------  -------------|
---------------------------------  -----------5-|
---5-----7-8-7---3---1---4-3-1-0-  -1-0-------5-|
---------------------------------  -----5-3-2-5-|
                                              (555 is beginning of groove,
                                              see "Groove" for continuation)

(Into Solo Riff)

-------------|
-------------|
-------------|
-------------|
-1-0-------8-|(8 is beginning of solo riff, see "Solo Riff" for continuation)
-----5-3-2---|

GROOVE (Q=10) (grouped numbers ARE NOT double digit frets)
                                                  1st & Second Ending
e)------------------------------------------------|-------------------------|
B)------------------------------------------------|-------------------------|
G)------------------------------------------------|-------------------------|
D)-5-5-555-8-8-888-333333/QQQ/888-5-5-555-8-8-888-|-333333222111------------|
A)-5-5-555-8-8-888-333333/QQQ/888-5-5-555-8-8-888-|-333333222111------------|
D)-5-5-555-8-8-888-333333/QQQ/888-5-5-555-8-8-888-|-333333222111------------|
       ...     ...                    ...     ...

GROOVE Second Ending Going Into First Fast Riff

e)--------------|
B)--------------|
G)--------------|
D)-333333555666-|
A)-333333555666-|
D)-333333555666-|

SOLO RIFF (Tremelo) (Q=10, X=11, Y=13)

e)------------------------------------------------------------------------|
B)------------------------------------------------------------------------|
G)------------------------------------------------------------------------|
D)------------------------------------------------------------------------|
A)-8-------9---6---X-------9---6---8-------9---6---4-----6-3-------8------|
D)------------------------------------------------------------------------|

----------------------------------------------------------|
----------------------------------------------------------|
----------------------------------------------------------|
--------------------------------------------------------3-|
-Q---6--YX-------Q---6--Y8-------Q---6--4-----6-3-------3-|
----------------------------------------------------8-6-3-|

1st INTRICATE RIFF BACKUP (Tremelo) (Q=10, X=11, A=13)
(Billy knows the pattern, this will
show what frets to do it at and in what order)

e)-------------------------------------------------------------------------|
B)-------------------------------------------------------------------------|
G)-------------------------------------------------------------------------|
D)-------------------------------------------------------------------------|
A)-------------------------------------------------------------------------|
D)-Q---------8---------Q---------5---------8---------A---------8---------5-|
Tap to rate this tab
 
# A B C D E F G H I J K L M N O P Q R S T U V W X Y Z