Song name
# A B C D E F G H I J K L M N O P Q R S T U V W X Y Z

Misc Unsigned Bands - Porn On Vinyl - Half Glass Empty tab

Half Glass Empty
Porn On Vinyl
I spent the night thinking, with short periods of sleep, interrupted by visions
Tabbed by: Chris Leisz
Email: laywithme.inthefield@gmail.com

Tuning: Standard

e|---3--3-5-3--1-3----------------------------------------------------------|
B|-----------------4--4-3-0-1-----------------------------------------------|
G|--------------------------------------------------------------------------|
D|--------------------------------------------------------------------------|
A|--------------------------------------------------------------------------|
E|--------------------------------------------------------------------------|

e|---3--3-5-3--1-3----------------------------------------------------------|
B|-----------------4--4-3-0-1-----------------------------------------------|
G|--------------------------------------------------------------------------|
D|--------------------------------------------------------------------------|
A|--------------------------------------------------------------------------|
E|--------------------------------------------------------------------------|

"Porn On Vinyl is 17 year old Dubliner Aidan Wall, he records great lofi folk songs in 
bedroom."
Here is where you can download his album 
(http://wefuckinglovemusic.blogspot.com/search?q=porn+on+vinyl)
Tap to rate this tab
 
# A B C D E F G H I J K L M N O P Q R S T U V W X Y Z