Song name
# A B C D E F G H I J K L M N O P Q R S T U V W X Y Z

Misc Unsigned Bands - Could Have It All - Broken tab

Could Have It All  Broken

Intro + Verse / Bass:


|----------------------------------------|
|----------------------------------------|
|----------------------------------------|
|--7-7-7-7-7-7-7-7--10-10-10-10--5-5-5-5-|


Intro / Guitar:

|-------------------------------------------------------------------------------|
|------11-----11-----12-----11-----9----------11-------11----11-----9-----9---9-|
|--9-9----9-9----9-9----9-9----9-9---9--12-12----12-12----12----7-7---7-7---7---|
|-------------------------------------------------------------------------------|
|-------------------------------------------------------------------------------|
|-------------------------------------------------------------------------------|


|-----------------------------------------------------------|
|--11-11-11-11-11-11-12-12-11-11-9-9--7-7-7-7---------------|
|--9--9--9--9--9--9--9--9--9--9--9-9--7-7-7-7--7-7-7-7------|
|-------------------------------------5-5-5-5--7-7-7-7------|
|----------------------------------------------5-5-5-5------|


|-----------------------------------------|
|-----------------------------------------|
|-----------------------------------------|
|-----------------------------------------|
|--9-9-9-9-9-9-9-9--12-12-12-12--7-7-7-7--|
|--7-7-7-7-7-7-7-7--10-10-10-10--5-5-5-5--|


|-------------------------------------------------------|
|-------------------------------------------------------|
|--9-11-11-11-11-12-12-11-9-9--9-11-11-11-11-11-9-9-9-9-|
|-------------------------------------------------------|
|--7-9--9--9--9--10-10-9--7-7--7-9--9--9--9--9--7-7-7-7-|
|-------------------------------------------------------|

Verse / Guitar:

|------------------------------------|
|------------------------------------|
|--4-4-4-4-4-4-4-4--7-7-7-7----------|
|--4-4-4-4-4-4-4-4--7-7-7-7--7-7-7-7-|
|--2-2-2-2-2-2-2-2--5-5-5-5--7-7-7-7-|
|----------------------------5-5-5-5-|




Fill / Bass:

|------------------------------------|
|------------------------------------|
|------------------------------------|
|--3-3-3-3-3-3-3-3--5-5-5-5--2-2-2-2-|

Fill / Guitar:

|------------------------------------|
|------------------------------------|
|--7-7-7-7-7-6-7-7--7-7-7-7--7-6-6-6-|
|------------------------------------|
|--5-5-5-5-5-4-5-5--5-5-5-5--5-4-4-4-|
|------------------------------------|

Chorus / Bass:

|-----------------------------------------------------|
|-----------------------------------------------------|
|--2-2-2-2-2-2-2-2-2-2-2-2-----------5-5-5-5----------|
|---------------------------3-3-3-3-----------5-5-5-5-|

Chorus / Guitar:

|------------------------------------------------------|
|------------------------------------------------------|
|--7-7-7-7-7-7-7-7-7-7-6-6------------7-7-7-7----------|
|----------------------------5-5-5-5--7-7-7-7--7-7-7-7-|
|--5-5-5-5-5-5-5-5-5-5-4-4---5-5-5-5--5-5-5-5--7-7-7-7-|
|--7-7-7-7-7-7-7-7-7-7-------3-3-3-3-----------5-5-5-5-|

Bridge / Bass:

|----------------------------------------------------|
|----------------------------------------------------|
|----------------------------------------------------|
|--3-3-3-3-3-3--5-5-5-5-5-5--7-7-7-7-7-7-7-7-7-7-7-7-|


|--------------------------------|
|--------------------------------|
|--------------------------------|
|--3-3-3-3-3-3--5-5-5-5--2-2-2-2-|




Bridge / Guitar:

|--------------------------------------------------------------------|
|--------------------------------------------------------------------|
|--4-4-4-4-4-4-4-4-7-7-7-6-6-7-7-7---4-4-4-4-4-4-4-4-7-7-7-6-6-7-7-7-|
|--------------------------------------------------------------------|
|--------------------------------------------------------------------|
|--------------------------------------------------------------------|


|--------------------------------------------------------------|
|--------------------------------------------------------------|
|--4-4-4-4-4-4-4-4-7-7-7-6-6-2-2-2-2-4-4-4-4-4-4-4-4-4-2-2-2-2-|
|--------------------------------------------------------------|
|--------------------------------------------------------------|
|--------------------------------------------------------------|


|---------------------------------------------|
|---------------------------------------------|
|--4-4-4-4-4-7-7-6-6-7-7--4-4-4-4-11-11-11-11-|
|---------------------------------------------|
|--2-2-2-2-2-5-5-4-4-5-5--2-2-2-2-9--9--9--9--|
|---------------------------------------------|
Tap to rate this tab
 
# A B C D E F G H I J K L M N O P Q R S T U V W X Y Z