Misc Unsigned Bands - Voted Most Random - A Beautiful You tab

Intro (lead)
|------------------------------------------------------10-|
|--7-8-7-8-10-7-8-7-8---7-8---7-8-7-8-10-7-8-7-8---7-8----|
|---------------------7-----7--------------------7--------|
|---------------------------------------------------------|
|---------------------------------------------------------|
|---------------------------------------------------------|

|--------------------------------------------------------|
|--7-8-7-8-10-7-8-7-8---7-8---7-8-7-8-10-7-8-7-8-7-------|
|---------------------7-----7----------------------7-----|
|--------------------------------------------------------|
|--------------------------------------------------------|
|--------------------------------------------------------|

Intro (Rhythm)
|--------------------|
|--------------------|
|--------------------|
|--7--5--9--5--7--5--| (x2)
|--5--5--9--5--5--5--|
|-----5--9--5-----5--|

|-----------------|
|-----------------|
|-----------------|
|--7--------------|
|--7--------------|
|--7--------------|

Verse (Rhythm)

|-----------------|
|-----------------|
|-----------------|
|--7--5--9--5-----|   (x2)
|--5--5--9--5-----|
|-----5--9--5-----|

|---------------------|
|---------------------|
|---------------------|
|--77--55--99--55-----|   (x2)
|--55--55--99--55-----|
|------55--99--55-----|

Chorus
|--------------------|
|--------------------|
|--------11-9--------|
|--7--5--------------|  (x2)
|--5--5--9--7--------|
|-----5--------------|

|--------------------|
|--------------------|
|--------------------|
|----5---------------|
|----5---------------|
|----5---------------|

Verse (Rhythm)

|-----------------|
|-----------------|
|-----------------|
|--7--5--9--5-----|   (x2)
|--5--5--9--5-----|
|-----5--9--5-----|

|---------------------|
|---------------------|
|---------------------|
|--77--55--99--55-----|   (x2)
|--55--55--99--55-----|
|------55--99--55-----|

Chorus
|--------------------|
|--------------------|
|--------11-9--------|
|--7--5--------------|  (x2)
|--5--5--9--7--------|
|-----5--------------|


|--------------------|
|--------------------|
|--7-----------------|
|--------------------|
|--5-----------------|
|--------------------|

(Drum Fill)

Solo (Rhythm)
|--------------------|
|--------------------|
|--------11-9--------|
|--7--5--------------|  (x3)
|--5--5--9--7--------|
|-----5--------------|

|--------------------|
|--------------------|
|--------------------|
|----5---------------|
|----5---------------|
|----5---------------|

|--------------------|
|--------------------|
|--------------------|
|----7---------------|
|----5---------------|
|--------------------|
Tap to rate this tab
 
# A B C D E F G H I J K L M N O P Q R S T U V W X Y Z