Song name
# A B C D E F G H I J K L M N O P Q R S T U V W X Y Z

Misc Unsigned Bands - Mt Eden Dubstep - Sierra Leone tab

Standard Tuning

--------3------6-5--6-5--6-5---|
--3---6---6--3---------------6-|
-------------------------------|          Just Repeat :)
-------------------------------|
-------------------------------|
-------------------------------|

That's what it is for the most part and the last part is sometimes repeated 3 times like this.

--6-5------6-5------6-5----------|
------6-3------6-3------6-3------|
---------------------------------|
---------------------------------|
---------------------------------|
---------------------------------|


First Tab
Rate Please Cheers

Slipstream
Tap to rate this tab
 
# A B C D E F G H I J K L M N O P Q R S T U V W X Y Z