Misc Unsigned Bands - Berlie D - Happy Day tab

chorus:

e----------3-------------------2------------0---------------3---------|
a----------0-------------------3------------1---------------0---------|
d----------0-X4----------------2-x4---------0-x4------------0---------|
g----------0-------------------0------------2---------------0---------|
b--2-3-2---2------2-2h3p2-2----0---3-2-3-2--3----3p2-0------2---------|
E-3--------3-----3-------------x------------0----------3-3--3---------|

verse:
G major, D major,
C major, G major

Solo:
e--------------------------------------------------------------------|
a--7--7-7---5--5-5----3-3-3p1-3p1-3p1--------3-1/7-7p6p5-------------|
d--------------------------------------1h2h3-------------7-5-7-5-7-5-|
g--------------------------------------------------------------------|
b--------------------------------------------------------------------|
E--------------------------------------------------------------------|

e--------------------------------------------------------------------|
a-------5------------------------------------------------------------|
d--5h6h7--7-5-7-5----------------------------------------------------|
g--------------------------------------------------------------------|
b--------------------------------------------------------------------|
E--------------------------------------------------------------------|
Tap to rate this tab
 
# A B C D E F G H I J K L M N O P Q R S T U V W X Y Z