Song name
# A B C D E F G H I J K L M N O P Q R S T U V W X Y Z

Misc Unsigned Bands - Variation Of Kangaroo Man - Day By Dave tab

e|-----------------------|
B|-----------------------|
G|-----------------------|
D|------7-5--------------|							X4
A|----------7------5-----|
E|-5--5-------5--5---8-5-|
  ......................

e|-----------------------------------|
B|-10x10-8x8--------------10x10-8x8--|
G|-9x9-7x7-9x9-7x7------9x9-7x7------|
D|-7x7-5x5-9x9-7x7------7x7-5x5------|					X2
A|---------7x7-5x5--5-5----------5-0-|
E|-----------------8-8----------8-8--|

e|------------------------------------------------------|
B|------------------------------------------------------|
G|-7-7-7-7-7-7-7-7/9---9----7-7-7-7-7-7-7-7---------4---|
D|-7-7-7-7-7-7-7-7/9---9----7-7-7-7-7-7-7-7-4---4---4---|		X2
A|-5-5-5-5-5-5-5-5/7---7----5-5-5-5-5-5-5-5-4---4---2---|
E|------------------------------------------2---2-------|

e|------------------------|		|-------------|
B|-101010-77-7--------------|		|-------------|
G|-99x9-66x6-7-7-7-6-6-6--|		|-7-7-7-6-6-6-|
D|-77x7-44x4-7-7-7-6-6-6--|	X3	|-7-7-7-6-6-6-|			X3
A|-----------5-5-5-4-4-4--|		|-5-5-5-4-4-4-|
E|------------------------|		|-------------|

e|--------|-----------------------------------------------------|
B|--------|10~~~8~~~----------------10~~~8~~~-------------------|
G|--------|--------9~~~7~~~--7---7---------9~~~7~~~--7----------|
D|--------|----------------10---10-------------------10---10--7-|	X1
A|--------|-----------------------------------------------------|
E|--------|-----------------------------------------------------|

e|-----------------------------------|
B|-10x10-8x8--------------10x10-8x8--|
G|-9x9-7x7-9x9-7x7------9x9-7x7------|
D|-7x7-5x5-9x9-7x7------7x7-5x5------|
A|---------7x7-5x5--5-5----------5-0-|					X2
E|-----------------8-8----------8-8--|

e|----------------------------------------------------|
B|----------------------------------------------------|
G|-7-7-7-7-7-7-7-7/9---9----7-7-7-7-7-7-7-7---------4-|
D|-7-7-7-7-7-7-7-7/9---9----7-7-7-7-7-7-7-7-4---4---4-|		X2
A|-5-5-5-5-5-5-5-5/7---7----5-5-5-5-5-5-5-5-4---4---2-|
E|------------------------------------------2---2-----|

e|------------------------|		|-------------|
B|-101010-77-7------------|		|-------------|
G|-99x9-66x6-7-7-7-6-6-6--|		|-7-7-7-6-6-6-|
D|-77x7-44x4-7-7-7-6-6-6--|	X3	|-7-7-7-6-6-6-|			X3
A|-----------5-5-5-4-4-4--|		|-5-5-5-4-4-4-|
E|------------------------|		|-------------|

And then


e|--------|7-----------------7-----------------8-----------------|
B|--------|8-----------------7-----------------8-----------------|
G|--------|9-----------------7-----------------9-----------------|
D|--------|9-----------------9-----------------10----------------|
A|--------|7-----------------9-----------------10----------------|
E|--------|------------------7-----------------8-----------------|
           V^ ^ ^ xxx ^ ^v ^ V^ ^ ^ xxx ^ ^v ^ V^ ^ ^ xxx ^ ^v ^ 

e|----------------------------|
B|----------------------------|
G|----------------------------|
D|----------------------------|						X1
A|-------7----------7-------5-|
E|-5-5-8------5-5-8---3-3-6---|

e|-7-----------------7-----------------8-----------------|		\
B|-8-----------------7-----------------8-----------------|		|
G|-9-----------------7-----------------9-----------------|		|
D|-9-----------------9-----------------10----------------|		|
A|-7-----------------9-----------------10----------------|		|
E|-------------------7-----------------8-----------------|		|
   V^ ^ ^ xxx ^ ^v ^ V^ ^ ^ xxx ^ ^v ^ V^ ^ ^ xxx ^ ^v ^ 		|
											X4
											|
 |--------------------|								|
 |--------------------|								|
 |--------------------|								|
 |-7-7------7-7-7/5-5-|								|
 |-7-7------7-7-7/5-5-|								|
 |-5-5------5-5-5/3-3-|								/

FADE OUT 
Tap to rate this tab
 
# A B C D E F G H I J K L M N O P Q R S T U V W X Y Z