Misc Unsigned Bands - Peggy Anderson - Not Named tab

Capo on 2nd

                                               [intro end]
E|-0------0-|-0------0-|-3------3-|-0------0-|-3------3--|
A|-0------0-|-1------1-|-0------0-|-2------2-|-3------3--|
D|---0----0-|---0----0-|---0----0-|---2----0-|---6----6--|
G|------2-2-|------2-2-|------0-0-|------2-2-|------5-5--|
B|-----2--2-|-----3--3-|-----2--2-|-----1--1-|-----6--6--|
E|-0------0-|-0------0-|-3------3-|-0------0-|-0------0--|
                                        
            
E|---------------|
A|---------------|
D|---------------|
G|--2/3-0------0-|
B|-0--------1/2--|
E|-------3-0-----|

E|------------------------|--------------|-----------------|---0---------|
A|------------------------|--------------|-----------------|---0--3------|
D|--------------2---2---0-|-----0--------|---- -0----------|---0-4-4-0-2-|
G|-------------2-2b--0-0--|--0h2-0-2p0---|---0h2-0-2p0-----|-------------|
B|-0--0-3-5-0-3-------2---|-2---------2--|-2---------2-----|--7----------|
E|------------------------|------------3-|------------0/8--|-8-----------|

E|-------------------|-----------|---------------|
A|-------------------|-----------|---------------|
D|-------------------|--------2--|-2-------------|
G|-7-5-0----7-5-0----|-----2h3-2-|--2----5-------|
B|------7b-------7---|----3------|---3-5b-3------|
E|----------------3b-|-0-5-------|---------5-0/3-|

[Outro]
E|--------0-----------------|
A|--------------------------|
D|--0-2h3----0-------0-2p0--|
G|-2----------0-----1-------|  
B|-------------2/3\2------2-|
E|-------------------------0|
Tap to rate this tab
 
# A B C D E F G H I J K L M N O P Q R S T U V W X Y Z