Song name
# A B C D E F G H I J K L M N O P Q R S T U V W X Y Z

Misc Unsigned Bands - Ian Dsa Noble Blood - Land Of A Thousand Hills chords

Highlighted       Show chord diagrams
RYTHM

Ian Dsa & Noble Blood - Land of a Thousand Hills

-Standard Tuning

------- Intro ------

Am Dm C E

   Am

e|-0---0-0-0-0---0---0-0-0-0----------|
B|-1---1-1-1-1---1---1-1-1-1----------|
G|-2---2-2-2-2---2---2-2-2-2----------|
D|-2---2-2-2-2---2---2-2-2-2----------|
A|-0---0-0-0-0---0---0-0-0-0----------|
E|------------------------------------|

   Dm

e|-1---1-1-1-1---1---1-1-1-1----------|
B|-3---3-3-3-3---3---3-3-3-3----------|
G|-2---2-2-2-2---2---2-2-2-2----------|
D|-0---0-0-0-0---0---0-0-0-0----------|
A|-0---0-0-0-0---0---0-0-0-0----------|
E|------------------------------------|

   C

e|-0---0-0-0-0---0---0-0-0-0----------|
B|-1---1-1-1-1---1---1-1-1-1----------|
G|-0---0-0-0-0---0---0-0-0-0----------|
D|-2---2-2-2-2---2---2-2-2-2----------|
A|-3---3-3-3-3---3---3-3-3-3----------|
E|------------------------------------|

   E

e|-0---0-0-0-0---0---0-0-0-0----------|
B|-0---0-0-0-0---0---0-0-0-0----------|
G|-1---1-1-1-1---1---1-1-1-1----------|
D|-2---2-2-2-2---2---2-2-2-2----------|
A|-2---2-2-2-2---2---2-2-2-2----------|
E|------------------------------------|

--------------------|
---- First Verse ---|

    Am                        Dm
For love and for country, its never the same

   C                      E
To men of high power, the two dont equate

     Am                      Dm
When leaders of nations, and brokers of hate

   C                      E         Am      Am
Continue to play the most deadly of games

--------------------|
--- Second Verse ---|

     Am                        Dm
They shuffle their demons, and deal out their sins

C                            E
Hand out their weapons, like candy to kids

Em                         Dm
Pull on their people, like puppets on strings

   C                          E            Am      Am
To play out their war, in the court of the king

--------------------|
------ Chorus ------|

        C                         G
And the fires keep burning in the middle of the night

    Am                           F
The rivers keep flowing like the tears from your eyes

        C                        G
You can still hear the voices of all those who died

       F         Dm       Am
In the land of a thousand hills

--------------------|
---- Third Verse ---|

   Am                            Dm
We drank through the summer, and soaked in the sun

      C	                  E
While over the ocean, the killing begun

     Am	                         Dm
They followed their leaders, and fired their guns

   C               E           Am    Am
We had no idea, of what was to come

--------------------|
------ Chorus ------|

        C                         G
And the fires keep burning in the middle of the night

    Am                           F
The rivers keep flowing like the tears from your eyes

        C                        G
You can still hear the voices of all those who died

     Am	                   F
They echo, they echo, like shots from a gun

     Am	                       F
They echo, they echo, like the rhythm of your drum

    Am                          G
For one hundred days, you could never see the sun

       F         Dm         Am
In the land of a thousand hills

--------------------|
--- Guitar Solo  ---|

Am Dm C E

Am Dm C E

--------------------|
--- Fourth Verse ---|

    Am                              Dm
And years will have passed, til the world would find out

    C                    E
The truth of unthinkable violence, so loud

   Am                         Dm
It shattered the heavens, and silenced the crowd

    C                    E
The highest almighty, cannot save us now

      Am                              Dm
Oh my brother, oh my brother, tell me what have you done?!

     C                              E
Well hide in the church, til the bulldozers come

          Am                     Dm
There are men with machetes, and children with guns

     C                      E             Am
Well never forgive you, for what you have done

--------------------|
------ Chorus ------|

        C                         G
And the fires keep burning in the middle of the night

    Am                           F
The rivers keep flowing like the tears from your eyes

        C                        G
You can still hear the voices of all those who died

     Am                    F
They echo, they echo, like shots from a gun

     Am                        F
They echo, they echo, like the rhythm of your drum

    Am	                   F
The rest of the world will expose all their lies

    Am                          F
And all those you silenced will once again rise

    Am	                        G
For one hundred days, you could never see the sky

       F         Dm       Am
In the land of a thousand hills

    Am                          G
For one hundred days, you could never see the sky

       F         Dm       Am
In the land of a thousand hills

       F         Dm       Am
In the land of a thousand hills
Tap to rate this tab
 
# A B C D E F G H I J K L M N O P Q R S T U V W X Y Z