Song name
# A B C D E F G H I J K L M N O P Q R S T U V W X Y Z

Misc Unsigned Bands - Amy Meredith - Lying tab

Great song! and i was surprised that there are no tabs for it yet, so i made one myself :) Enjoy!

http://www.amymeredith.com.au/
Band: Amy Meredith - Lying (Acoustic)
Album: Restless
Year: 2010
Tabbed by: Scott Naylor

Tunning: E A D G B e (Capo on 1st Fret)


Verse

e||-0-0-0-0--0-0-0-0--0-0-0-0--0-0-0-0----|\
B||-0-0-0-0--0-0-0-0--0-0-0-0--0-0-0-0----| \
G||-6-6-6-6--4-4-4-4--9-9-9-9--9-9-9-9----|  \
D||-6-6-6-6--4-4-4-4--9-9-9-9--9-9-9-9----|   \
A||-4-4-4-4--2-2-2-2--7-7-7-7--6-6-6-6----|    \
E||---------------------------------------|     |
                                                | x2
e||-0-0-0-0--0-0-0-0--0-0-0-0--0-0-0-0----|     |
B||-0-0-0-0--0-0-0-0--0-0-0-0--0-0-0-0----|    /
G||-6-6-6-6--4-4-4-4--6-6-6-6--9-9-9-9----|   /
D||-6-6-6-6--4-4-4-4--6-6-6-6--9-9-9-9----|  /
A||-4-4-4-4--2-2-2-2--4-4-4-4--7-7-7-7----| /
E||---------------------------------------|/


Chorus

e||-0-0-0-0--0-0-0-0--0-0-0-0--0-0-0-0----| You can either mute the 'e'
B||-0-0-0-0--0-0-0-0--0-0-0-0--0-0-0-0----| and 'B' or leave them open.
G||-6-6-6-6--4-4-4-4--4-4-4-4--4-4-4-4----|  
D||-6-6-6-6--2-2-2-2--4-4-4-4--2-2-2-2----|  x4
A||-4-4-4-4--2-2-2-2--2-2-2-2--0-0-0-0----|    
E||----------0-0-0-0----------------------|     


Verse x1


Chorus x1


Bridge

e||-0-0-0-0--0-0-0-0--0-0-0-0--0-0-0-0----|
B||-0-0-0-0--0-0-0-0--0-0-0-0--0-0-0-0----| 
G||-4-4-4-4--4-4-4-4--4-4-4-4--6-6-4-4----|  
D||-2-2-2-2--4-4-4-4--4-4-4-4--6-6-4-4----|   
A||-0-0-0-0--2-2-2-2--x-x-x-x--4-4-2-2----|    
E||-------------------2-2-2-2-------------|      
                                                    
e||-0-0-0-0--0-0-0-0--0-0-0-0--0-0-0-0--0~---|
B||-0-0-0-0--0-0-0-0--0-0-0-0--0-0-0-0--0~---| 
G||-4-4-4-4--4-4-4-4--4-4-4-4--4-4-4-4--6~---|  
D||-2-2-2-2--4-4-4-4--4-4-4-4--4-4-4-4--6~---|   
A||-0-0-0-0--2-2-2-2--x-x-x-x--x-x-x-x--4~---|    
E||-------------------2-2-2-2--2-2-2-2-------|   


Chorus x2


Bridge x1


   x = Mute note
   ~ = Let ring

     Feel free to leave me feedback on the tab at scotty_naylor@hotmail.com

     Thanks 
Tap to rate this tab
 
# A B C D E F G H I J K L M N O P Q R S T U V W X Y Z