Song name
# A B C D E F G H I J K L M N O P Q R S T U V W X Y Z

Misc Unsigned Bands - Souls Of Tomorrow - Time Remembered tab

------------------------------------------------------------------------
			“Time Remembered” Souls of Tomorrow
------------------------------------------------------------------------
Tabbed by: GuitarGod Tone
Email:soulsoftomorrow@yahoo.com

Tuning:Standard

   Main Riff/Intro
e|----------------------------------------------------------------------|
B|----------------------------------------------------------------------|
G|----------------------------------------------------------------------|
D|-66--66--66--66--33--33--33--33---------------------------------------|
A|-44--44--44--44--11--11--11--11--33--33--33--33--66--66--66--66--7--6-|
E|---------------------------------11--11--11--11--44--44--44--44--5--4-|
   xx  xx  xx  xx  xx  xx  xx  xx  xx  xx  xx  xx  xx  xx  xx  xx  x  x


e|----------------------------------------------------------------------|
B|----------------------------------------------------------------------|
G|----------------------------------------------------------------------|
D|-77--77--77--77--55--55--55--55--------------------------------6--3---|
A|-55--55--55--55--33--33--33--33--44--44--44--44--77-77-77-77---6--3---|
E|---------------------------------22--22--22--22--55-55-55-55---4--1---|
   xx  xx  xx  xx  xx  xx  xx  xx  xx  xx  xx  xx  xx xx xx xx   x  x


   Chorus
e|----------------------------------------------------------------------|
B|----------------------------------------------------------------------|
G|----------------------------------------------------------------------|
D|-22--22--22-----22--22--22-----22--22--22-----------------------------|
A|-22--22--22--5--22--22--22--7--22--22--22---7--5--7--2----------------|
E|-00--00--00--3--00--00--00--5--00--00--00---5--3--5--0----------------|
           xx             xx             xx


Song Format-
Intro/Main Riff
Chorus x2
Intro Main Riff
Chorus x2

| /   slide up
| \   slide down
| h   hammer-on
| p   pull-off
| ~   vibrato
| +   harmonic
| x   Mute note
| b   Bend
| pb  Pre-bend
| br  Bend release
| pbr Pre-bend release
| brb Bend release bend
Tap to rate this tab
 
# A B C D E F G H I J K L M N O P Q R S T U V W X Y Z