Song name
# A B C D E F G H I J K L M N O P Q R S T U V W X Y Z

Misc Unsigned Bands - Souls Of Tomorrow - Night Of Thrash tab

------------------------------------------------------------------------
			“Night of Thrash” Souls Of Tomorrow
------------------------------------------------------------------------
Tabbed by: GuitarGod Tone
Email:soulsoftommorow@yahoo.com

Tuning:Standard

    Inro/Outro-A
e|----------------------------------------------------------------------|
B|----------------------------------------------------------------------|
G|----------------------------------------------------------------------|
D|-22----------22----------22----------22---------22--------22----------|
A|-22--0-5-6---22--0-7-8---22--0-3-4---22---------22--------22----------|
E|-00-------5--00-------7--00-------4--00-065356--00-087578-0001097910--|
   ..          ..          ..          ..         ..        ..

   Main Riff-B
e|----------------------------------------------------------------------|
B|----------------------------------------------------------------------|
G|----------------------------------------------------------------------|
D|2-2-2-2-2-2-3-3-3-3-3-35-5-5-5-5-5-7-7-7-7-7-7-----------2------------|
A|2-2-2-2-2-2-3-3-3-3-3-35-5-5-5-5-5-7-7-7-7-7-7-----------2------------|
E|0202020202030303030303005050505050507070707070--77-55-33-2------------|
  . . . . . . . . . . . . . . . . . . . . . . .   .. .. ..

   Chorus-C
e|----------------------------------------------------------------------|
B|----------------------------------------------------------------------|
G|----------------------------------------------------------------------|
D|-9----12-----9----11-----9----12-11-0---------------------------------|
A|-9-x8-12-x4--9-x8-11-x4--9-x8-12-11-0---------------------------------|
E|-9----12-----9----11-----9----12-11-0---------------------------------|


Song Format-
Intro/Outro
Main Riff
Chorus x2
Main Riff
Chorus x2
Intro/Outro


************************************

| /   slide up
| \   slide down
| h   hammer-on
| p   pull-off
| ~   vibrato
| b   Bend
| pb  Pre-bend
| br  Bend release
| pbr Pre-bend release
[ .   Palm-mute
************************************
Tap to rate this tab
 
# A B C D E F G H I J K L M N O P Q R S T U V W X Y Z