Song name
# A B C D E F G H I J K L M N O P Q R S T U V W X Y Z

Misc Unsigned Bands - Farhad Mehrad - Morghe Sahar V1 tab

E|--------|--------|----------------------|----------------|-------------------|--------|
B|--5--5--|--5-5---|---5----2-----4---5---|---5-5-5-5------|-------------------|--------|
G|--------|--------|----------------------|----------------|-------------------|--------|
D|--------|--------|----------------------|----------------|-------------------|--------|
A|--------|--------|----------------------|----------------|-------------------|--------|
E|--------|--------|----------------------|----------------|-------------------|--------|
  morghe   sahar      nale sar kon                                                      

E|--------|--------|----------------------|----------------|-------------------|--------|
B|--5--5--|--5-5---|---5----2-----4---5---|---5-5-5-5------|-------------------|--------|
G|--------|--------|----------------------|----------------|-------------------|--------|
D|--------|--------|----------------------|----------------|-------------------|--------|
A|--------|--------|----------------------|----------------|-------------------|--------|
E|--------|--------|----------------------|----------------|-------------------|--------|
  daghe     mara        taze tar kon                                                      

E|--------|--4-4-4-|---2------------5-----|----2-----4-----|--0----------------|--------|
B|---5----|--------|----------------------|----------------|-------------------|--------|
G|--------|--------|----------------------|----------------|-------------------|--------|
D|--------|--------|----------------------|----------------|-------------------|--------|
A|--------|--------|----------------------|----------------|-------------------|--------|
E|--------|--------|----------------------|----------------|-------------------|--------|
    zahe   shararbar  in         ghafas                    ra 

E|--------|-4-4-4--|---2------------------|----------------|-------------------|--------|
B|---5----|--------|----------------------|--5---2----4----|---5---------------|--------|
G|--------|--------|----------------------|----------------|-------------------|--------|
D|--------|--------|----------------------|----------------|-------------------|--------|
A|--------|--------|----------------------|----------------|-------------------|--------|
E|--------|--------|----------------------|----------------|-------------------|--------|
     bar    shekan o    zir                  o zebar           kon    


E|-5---5--|-4---2--|--4----0-----2-----4--|----5---2---4---|---0----2----4-----|--------|
B|--------|--------|----------------------|----------------|-------------------|--------|
G|--------|--------|----------------------|----------------|-------------------|--------|
D|--------|--------|----------------------|----------------|-------------------|--------|
A|--------|--------|----------------------|----------------|-------------------|--------|
E|--------|--------|----------------------|----------------|-------------------|--------|
   bolbole  par baste  ze konje        ghafas    dar a

E|---5----|--2-----|---4-------0------2---|----------------|-------------------|--------|
B|--------|--------|----------------------|----------------|-------------------|--------|
G|--------|--------|----------------------|----------------|-------------------|--------|
D|--------|--------|----------------------|----------------|-------------------|--------|
A|--------|--------|----------------------|----------------|-------------------|--------|
E|--------|--------|----------------------|----------------|-------------------|--------|
	naghmeye azadiye noe bashar sara
E|--------|--------|----------------------|----------------|-------------------|--------|
B|--------|--------|----------------------|----------------|-------------------|--------|
G|--------|--------|----------------------|----------------|-------------------|--------|
D|--------|--------|----------------------|----------------|-------------------|--------|
A|--------|--------|----------------------|----------------|-------------------|--------|
E|--------|--------|----------------------|----------------|-------------------|--------|
vaz nafasi arseye in khake tudera      por samar kon      zolme zalem jor e sayad      

E|--------|--------|----------------------|----------------|-------------------|--------|
B|--------|--------|----------------------|----------------|-------------------|--------|
G|--------|--------|----------------------|----------------|-------------------|--------|
D|--------|--------|----------------------|----------------|-------------------|--------|
A|--------|--------|----------------------|----------------|-------------------|--------|
E|--------|--------|----------------------|----------------|-------------------|--------|
ashyanam dadeh bar bad

ey khoda ey falak ey tabeeaat
shame tareeke mara sahar kon

This is for now, will work on it more later and put it up

M. Ebrahim Sadeghian F.
Tap to rate this tab
 
# A B C D E F G H I J K L M N O P Q R S T U V W X Y Z