Misc Unsigned Bands - Amy Meredith - Lying tab

After tabbing the acoustic version, I thought I might do the actual version. 
Here it is :)

http://www.amymeredith.com.au/
Band: Amy Meredith - Lying
Album: Restless
Year: 2010
Tabbed by: Scott Naylor

Tunning: E A D G B e


Intro (This is played on the bass but I tabbed it out anyway)

Guitar 1

e||-----------------------------------------------| 
B||-----------------------------------------------| 
G||-----7-----------------7-----------------------|  
D||-7-7-7-3--5~-------7-7-7-5--3~-----------------| x2
A||-5-5-5-3--5~-------5-5-5-5--3~-----------------|    
E||-------1--3~-------------3--1~-----------------|    

Verse 1 (Ther is no guitar played in this verse but I tabbed out some chords if 
you want to play along)

e||-----------------------------------------------|\ 
B||-----------------------------------------------| \
G||-7-7-7-7--10-10-10-10--------------------------|  \
D||-7-7-7-7--10-10-10-10--8-8-8-8--7-7-7-7--------|   \
A||-5-5-5-5--8--8--8--8---8-8-8-8--7-7-7-7--------|    \
E||-----------------------6-6-6-6--5-5-5-5--------|     |
                                                        |Strum on the off beat
e||-----------------------------------------------|     |
B||-----------------------------------------------|    /
G||-7-7-7-7--10-10-10-10--------------------------|   /
D||-7-7-7-7--10-10-10-10--8-8-8-8--10-10-10-10----|  /
A||-5-5-5-5--8--8--8--8---8-8-8-8--10-10-10-10----| /   
E||-----------------------6-6-6-6--8--8--8--8-----|/   

  
Pre-Chorus

Guitar 1 

    1 & 2 & 3 & 4 & 1 & 2 & 3 & 4 & 1 & 2 & 3 & 4 & 1 & 2 & 3 & 4 &
e||---------------------------------------------------------------------| 
B||---------------------------------------------------------------------| 
G||-5----------x5x2-----5------x5x3-2----------x5x3-3-----3-2---2-2-----|  
D||-3----------x3x0-----3------x3x3-0----------x3x5-3-----3-0---0-0-----|  
A||---------------------------------------------------------------------|
E||---------------------------------------------------------------------|

Guitar 2

e||-------------------------55555555------------------------------------| 
B||-----------------88888888--------6666666666666666--------------------| 
G||-7777777777777777--------------------------------5555555555555555----|  
D||---------------------------------------------------------------------|  
A||---------------------------------------------------------------------|   
E||---------------------------------------------------------------------| 

e||-----------------5555555555555555------------------------8~----------| 
B||---------------------------------888888888888888866666666------------| 
G||-7777777777777777----------------------------------------------------|  
D||---------------------------------------------------------------------|  
A||---------------------------------------------------------------------|   
E||---------------------------------------------------------------------|


Chorus (Part 1) 

Guitar 1

e||-------------------------------------------| 
B||-------------------------------------------| 
G||-7-7-7-7--10-10-10-10--5-5-5-5--3-3-3-3----|  
D||-7-7-7-7--10-10-10-10--5-5-5-5--3-3-3-3----| x2  
A||-5-5-5-5--8--8--8--8---3-3-3-3--1-1-1-1----|    
E||-------------------------------------------|    

Guitar 2

e||-------------------------------------------| 
B||-10--10---13-11-10-----------10------------| 
G||---10--10----------10--12~------10~--------|  
D||-------------------------------------------|  
A||-------------------------------------------|    
E||-------------------------------------------|    

e||----------13-12-10-----10~---13-10~--------| 
B||-10--10------------13----------------------| 
G||---10--10----------------------------------|  
D||-------------------------------------------|  
A||-------------------------------------------|    
E||-------------------------------------------| 

   
Chorus (Part 2)

Guitar 1

e||-------------------------------------------| 
B||-------------------------------------------| 
G||-7-7-7-7-----------5-5-5-5--3-3-3-3--------|  
D||-7-7-7-7--3-3-3-3--5-5-5-5--3-3-3-3--------|  
A||-5-5-5-5--3-3-3-3--3-3-3-3--1-1-1-1--------|    
E||----------1-1-1-1--------------------------|    

e||-------------------------------------------| 
B||-------------------------------------------| 
G||-7-7-7-7-----------5-5-5-5--5-5-5-5--------|  
D||-7-7-7-7--3-3-3-3--5-5-5-5--5-5-5-5--------|  
A||-5-5-5-5--3-3-3-3--3-3-3-3--3-3-3-3--------|    
E||----------1-1-1-1--------------------------|    

Guitar 2

e||--------------5----------------------------| 
B||-------6----6---6--------6--5-6------------| 
G||-7-5-7----7--------7-5-7--------7-5--------|  
D||-------------------------------------------| x2 
A||-------------------------------------------|    
E||-------------------------------------------|   


Verse 2

Guitar 1

    1 & 2 & 3 & 4 & 1 & 2 & 3 & 4 & 1 & 2 & 3 & 4 & 1 & 2 & 3 & 4 &
e||---------------------------------------------------------------------| 
B||---------------------------------------------------------------------| 
G||-5----------x5x2-----5------x5x3-2----------x5x3-3-------------------|  
D||-3----------x3x0-----3------x3x3-0----------x3x5-3-------------------|  
A||---------------------------------------------------------------------|
E||---------------------------------------------------------------------|


Pre-Chorus x1


Chorus (Part 1) x1


Chorus (Part 2) x1


Bridge

Both Guitars

e||-------------------------------------------| 
B||-------------------------------------------| 
G||-3-3-3-3--5-5-5-5-----------7-7-5-5--------|  
D||-3-3-3-3--5-5-5-5--5-5-5-5--7-7-5-5--------|  
A||-1-1-1-1--3-3-3-3--5-5-5-5--5-5-3-3--------|    
E||-------------------3-3-3-3-----------------|    

e||-------------------------------------------| 
B||-------------------------------------------| 
G||-3-3-3-3--5-5-5-5--------------------------|  
D||-3-3-3-3--5-5-5-5--5-5-5-5--5v-------------|  
A||-1-1-1-1--3-3-3-3--5-5-5-5--5v-------------|    
E||-------------------3-3-3-3--3v-------------|    


Pre-Chorus x1


Chorus (Part 1) x1


Chorus (Part 2) x1


Bridge x1 (Finish off by letting the chord ring instead of a stab)


   v = Stab chord
   x = Mute note
   ~ = Let ring

     Feel free to leave me feedback on the tab at scotty_naylor@hotmail.com

     Thanks
Tap to rate this tab
 
# A B C D E F G H I J K L M N O P Q R S T U V W X Y Z