Misc Unsigned Bands - Taylor Matthews - Somewhere Over The Rainbow tab

-----------------------------------------------------------------------------
           Somewhere Over the Rainbow - AGT Audition Taylor Matthews
-----------------------------------------------------------------------------
Tabbed by: iliveformusic
Tuning: Standard

http://www.youtube.com/watch?v=KhW_Jn9TCJA&feature=related
(He starts singing around 1:28)

This was performed for America's Got Talent by Taylor Matthews, and is his own version 
the song - I thought it sounded great. This is my first tab, so please leave 
comments and suggestions:)

He adds rhythm to the strumming which is easy to figure out once you listen to the song, 
I'm just going to tab the fingering.
Thanks!


e|------------x-------------------------x-------------------------------------|
B|------------10------------------------5-------------------------------------|
G|------------11------------------------6-------------------------------------|
D|------------12------------------------7-------------------------------------|
A|------------12------------------------7-------------------------------------|
E|------------x-------------------------x-------------------------------------|

              Somewhere...              Over the rainbow...

e|------------x-------------------------x-----------------------------------|
B|------------7-------------------------3-----------------------------------|
G|------------7-------------------------4-----------------------------------|
D|------------9-------------------------5-----------------------------------|
A|------------9-------------------------5-----------------------------------|
E|------------x-------------------------x-----------------------------------|

                                 Way up high...        There's a

e|------------x-------------------------x-------------------------------------|
B|------------10------------------------5-------------------------------------|
G|------------11------------------------6-------------------------------------|
D|------------12------------------------7-------------------------------------|
A|------------12------------------------7-------------------------------------|
E|------------x-------------------------x-------------------------------------|

              land, that I              heard of...

e|------------x----------------x--------x--------------------------------|
B|------------7----------------5--------3--------------------------------|
G|------------7----------------6--------4--------------------------------|
D|------------9----------------7--------5--------------------------------|
A|------------9----------------7--------5--------------------------------|
E|------------x----------------x--------x--------------------------------|
                                            (Play louder - you can try an
              Once in a...  lulla  -    by.       open G if you want here)

e|------------x-------------------------x-------------------------------------|
B|------------10------------------------5-------------------------------------|
G|------------11------------------------6-------------------------------------|
D|------------12------------------------7-------------------------------------|
A|------------12------------------------7-------------------------------------|
E|------------x-------------------------x-------------------------------------|

                  If happy little       bluebirds fly,

e|------------x----------------7---8---------10--------5-----------------|
B|------------8----------------7---8---------10--------5-----------------|
G|------------9----------------8---9---------11--------6-----------------|
D|------------10---------------9--10---------12--------7-----------------|
A|------------10---------------9--10---------12--------7-----------------|
E|------------x----------------7---8---------10--------5-----------------|

                     Over the  rainbow, then why, oh why,

e|------------8-----------7--------8---------10---------5-----------------|
B|------------8-----------7--------8---------10---------5-----------------|
G|------------9-----------8--------9---------11---------6-----------------|
D|------------10----------9-------10---------12---------7-----------------|
A|------------10----------9-------10---------12---------7-----------------|
E|------------8---------- 7--------8---------10---------5-----------------|

        can't I fly,      over the rainbow,  tonight, tonight, tonight,

e|------------8-----------7--------8--------------0-----------------------|
B|------------8-----------7--------8--------------10----------------------|
G|------------9-----------8--------9--------------11----------------------|
D|------------10----------9-------10--------------12----------------------|
A|------------10----------9-------10--------------12----------------------|
E|------------8---------- 7--------8--------------x-----------------------|

            tonight,                    I'm gonna fly...

e|------------0-------------------------0-------------------------------------|
B|------------10------------------------5-------------------------------------|
G|------------11------------------------6-------------------------------------|
D|------------12------------------------7-------------------------------------|
A|------------12------------------------7-------------------------------------|
E|------------x-------------------------x-------------------------------------|

      And the dreams,          that you dare...


e|------------0-------------------------0-----------------------------------|
B|------------7-------------------------3-----------------------------------|
G|------------7-------------------------4-----------------------------------|
D|------------9-------------------------5-----------------------------------|
A|------------9-------------------------5-----------------------------------|
E|------------x-------------------------x-----------------------------------|
       to dream,         really do come true...over the rainbow.
Tap to rate this tab
 
# A B C D E F G H I J K L M N O P Q R S T U V W X Y Z