Misc Unsigned Bands - Tim Howell - Empty Frame tab

          INTRO
D|-----------------------------------------------------|
A|-----------------------------------------------------|
F|-----------------------------------------------------|
C|-----10---9---7---9-10-9~------10---9---7---9-12-10~-|
G|--0-0--0-0-0-0-0-0-0--0-----0-0--0-0-0-0-0-0-0--0----|
C|-----------------------------------------------------|
 PM . .  . . . . . . .  .     . .  . . . . . . .  .

D|-----------------------------------------------------|
A|-----------------------------------------------------|
F|-----------------------------------------(fast)------|
C|-----5---5---5-5~----7---7--4h5h7--7--5--4h5p4h5-----|
G|--3-3-3-3-3-3--3~-5-5-5-5------------------------5/7-|
C|-----------------------------------------------------|
 PM . . . . . .  .  . . . .

D|-----------------------------------------------------|
A|-----------------------------------------------------|
F|-----------------------------------------------------|
C|-----10---9---7---9-10-9~------10---9---7---9-12-10~-|
G|--0-0--0-0-0-0-0-0-0--0-----0-0--0-0-0-0-0-0-0--0----|
C|-----------------------------------------------------|
 PM . .  . . . . . . .  .     . .  . . . . . . .  .

D|------------------------------------------------------------------------|
A|------------------------------------------------------------------------|
F|----------------------------11h12p11---11h12p11-------------------------|
C|-----5---5---5-5~----7---7-----------14--------12--14*--5~--7~----------|
G|--3-3-3-3-3-3--3~-5-5-5-5-------------------------------3~--5~-////////-|
C|---------------------------------------------------------------////////-|
 PM . . . . . .  .  . . . .


        VERSE
D|---------------------------------------------------|
A|---------------------------------------------------|
F|---------------------------------------------------|
C|------7p0---------------5---3---2---3---2-2-2h3p2--|
G|---0-0---0-0-0-0-0-0-5-5-0-0-0-0-0-0-0-0-0-------3-|
C|---------------------------------------------------|
 PM  . .   . . . . . . . . . . . . . . . . .                PLAY VERSE
                                                              TWICE
D|-------------------------------------|
A|-------------------------------------|
F|----------------------------------3--|
C|-----3---3---3---3---2---2---2-3-2---|
G|--3-3-3-3-3-3-3-3-3-3-3-3-3-3--------|
C|-------------------------------------|
 PM . . . . . . . . . . . . . .

      PRE-CHORUS
D|------------------------------------------|
A|------------------------------------------|
F|------------------------------------------|
C|-----4---4---4---4---5---5---5---5(PLAY---|
G|--2-2-2-2-2-2-2-2-3-3-3-3-3-3-3-3-(TWICE)-|
C|------------------------------------------|
 PM . . . . . . . . . . . . . . . .

D|--15p14p12----------------------------------|
A|----------15p14p12--------------------------|
F|------------------14p13p12-14*^-14-14-12----|
C|----------------------------------------14~-|
G|--------------------------------------------|
C|--------------------------------------------|

       CHORUS
D|---------------------------------------------------------------|
A|---------------------------------------------------------------|
F|---------------------------------------------------------------|
C|--3~-3-3-3-3-3-3-3-2-3-3~-3-3-3-3-3-3-3-2-3-5~-5-5-5-5-5-5-5-5-|
G|--1~-1-1-1-1-1-1-1-1-1-1~-1-1-1-1-1-1-1-1-1-3~-3-3-3-3-3-3-3-3-|
C|---------------------------------------------------------------|
 PM    . . . . . . . . .    . . . . . . . . .    . . . . . . . .

D|-----------------------------------------------------|
A|-----------------------------------------------------|                     REPEAT CHORUS
F|-----------------------------------------------------|                         TWICE
C|--7~-7-7-7-8-7-5~-5-5-5-6-5--------------------------|
G|--5~-5-5-5-5-5-3~-3-3-3-3-3--------------------------|
C|-----------------------------------------------------|
 PM    . . . . .    . . . . .
Tap to rate this tab
 
# A B C D E F G H I J K L M N O P Q R S T U V W X Y Z