Song name
# A B C D E F G H I J K L M N O P Q R S T U V W X Y Z

Misc Unsigned Bands - Games Of Slaughter - Forgive Me Never tab

Tuning: CGCFAD

\=Whammy Dive
~=Whammy Tremelo
x=Muted

  INTRO:                  RIFF ONE:
D|------------------|    |-------------------------------------|
A|------------------|    |-------------------------------------|
F|------------------|    |-------------------------------------|
C|------------------| x4 |---5-----5-----7h8---5-----5-----5h3-| x10 
G|------------------|    |---5-----5-----7h8---5-----5-----5h3-|
C|--x-xxx-x-xxx-x-x-|    |-----x-x---x-x---------x-x---x-x-----|

  CHORUS: 
D|--------------------|-----------------------|
A|--------------------|-----------------------|
F|--------------------|-----------------------|
C|--7--9-10-7-5--4-2\-|--7--9-10--14-12--9-7~-|
G|--5--7-8--5-3--2-0\-|--5--7-8---12-10--7-5~-|
C|--------------------|-----------------------|

  (play chorus 2 times)

  Play RIFF ONE 4 more times then pick slide to a stop.

  RIFF TWO(a):
D|---------------------------------|---------------------------------|
A|---------------------------------|---------------------------------|
F|---------------------------------|---------------------------------|
C|---------------------------------|---------------------------------| x4
G|--xxx-x-x-xxx-x-x-xxx-x-x-753532-|--xxx-x-x-xxx-x-x-xxx-x-x-753357-|
C|--xxx-x-x-xxx-x-x-xxx-x-x-753532-|--xxx-x-x-xxx-x-x-xxx-x-x-753357-|
                            xxxxxx                            xxxxxx

  RIFF TWO(b):
D|---------------------------------|---------------------------------|
A|---------------------------------|---------------------------------|
F|---------------------------------|---------------------------------|
C|---------------------------------|---------------------------------| x4
G|--xxx-x-x-xxx-x-x-xxx-x-x--------|--xxx-x-x-xxx-x-x-xxx-x-x--------|
C|--xxx-x-x-xxx-x-x-xxx-x-x-753532-|--xxx-x-x-xxx-x-x-xxx-x-x-753357-|

  After the last time playing RIFF TWO(b) strum an open and let ring 

  RIFF THREE(a):
D|--------------------------------------------------|
A|-------please-note-that-these-are-tens|-------|---|
F|--------------------------------------|-------|---|
C|--------------------------------------V-------V---|x4
G|--50070080070050070080070050070080070010080120100-|
C|-------please-note-that-these-are-tens^-------^---|
 
  RIFF THREE(b):
D|--------------------------------------|
A|--------------------------------------|
F|--------------------------------------|
C|--5-7-8-7-5-7-8-7-5-7-8-7-10-8-12-10--|x2
G|--5-7-8-7-5-7-8-7-5-7-8-7-10-8-12-10--|
C|---x-x-x-x-x-x-x-x-x-x-x-x--x-x--x--x-|

  Then Play RIFF ONE 2 More Times, and Then Play The Chorus Again

  On the last not of the chorus do a whammy dive then return and end with:
D|---------------|
A|------12-12-12-|
F|------17-17-16-|
C|---------------|
G|--0------------|
C|--0xx---x------|

  End Song
Tap to rate this tab
 
# A B C D E F G H I J K L M N O P Q R S T U V W X Y Z