Misc Unsigned Bands - Ghost Town - Fireball tab

			     Fireball - Ghost Town
Tabbed by: Hobbitstyle
Email: Zekewhiting@yahoo.com

Tuning: eBGDAE

Guitar I: Clean with Wah

e|--------------------------------|
B|--------------------------------|
G|6---6---6---6---6---6---6---6---|
D|7---7---7---7---7p0-7---7p0-7---|
A|7---7---7---7---7---7---7---7---|
E|5p0-5---5p0-5---5---5---5---5---|

e|--------------------------------|
B|--------------------------------|
G|4---4---4---4---4---4---4---4---|
D|5p0-5---5p0-5---5---5---5---5---|
A|5p0-5---5p0-5---5---5---5---5---|
E|3---3---3---3---2/3-3---2/3-3---|

e|--------------------------------|
B|--------------------------------|
G|6-------6-------6-------6-------|
D|7-------7-------7-------7-------|
A|7-------7-------7-------7-------|
E|5-2h3-5-5-2h3-5-5-2h3-5-5-2h3-5-|

e|--------------------------------|
B|--------------------------------|
G|4p0-4---4p0-4---4p0-4---4p0-4---|
D|5/7-5---5/7-5---5/7-5---5/7-5---|
A|5/7-5---5/7-5---5/7-5---5/7-5---|
E|3p0-3---3p0-3---3p0-3---3p0-3---|

e|--------------------------------|
B|--------------------------------|
G|6/7-6p5-6/7-6p5-6/7-6p5-6/7-6p5-|
D|7---7p5-7---7p5-7---7p5-7---7p5-|
A|7---7p5-7---7p5-7---7p5-7---7p5-|
E|5/7-5---5/7-5---5/7-5---5/7-5---|

e|--------------------------------|
B|--------------------------------|
G|4---4p0-4---4p0-4---4p0-4---4p0-|
D|5---5p0-5---5p0-5---5p0-5---5p0-|
A|5---5p0-5---5p0-5---5p0-5---5p0-|
E|0h3-3/5-0h3-3/5-0h3-3/5-0h3-3/5-|

e|--------------------------------|
B|--------------------------------|
G|6-------------------------------|
D|7-------------------------------|
A|7-------------------------------|
E|5p0h5p0h5p0h5p0h5p0h5p0h5p0h5p0-|

e|--------------------------------|
B|--------------------------------|
G|4---4\--4---4\--4---4\--4---4\--|
D|0h5-5\--0h5-5\--0h5-5\--0h5-5\--|
A|0h5-5\--0h5-5\--0h5-5\--0h5-5\--|
E|0h3-3\--0h3-3\--0h3-3\--0h3-3\--|

Guitar II: Mild Fuzz with Wah

e|--------------------------------|
B|--------------------------------|
G|6p0-6/8-6p0-6/8-6p0-6/8-6p0-6/8-|
D|7p0-7p0-7p0-7p0-7p0-7p0-7p0-7p0-|
A|7\5-7p0-7\5-7p0-7\5-7p0-7\5-7p0-|
E|5p0-5p0-5p0-5p0-5p0-5p0-5p0-5p0-|

e|--------------------------------|
B|--------------------------------|
G|4p0-----4*--4\--4p0-----4*--4\--|
D|5\3\2/5-5*--5\--5\3\2/5-5*--5\--|
A|5p0-----5*--5\--5p0-----5*--5\--|
E|3\1\0/3-3*--3\--3\1\0/3-3*--3\--|

e|--------------------------------|
B|--------------------------------|
G|6---6p0h6---6---6p0h6---6---6/--|
D|7---7p0h7---7---7p0h7---7---7/--|
A|7---7p0h7---7---7p0h7---7---7/--|
E|5---5p0h5---5---5p0h5---5---5/--|

e|--------------------------------|
B|--------------------------------|
G|4-4-4---4/\-4-4-4---4/\-4-4-4---|
D|5-5-5---5/\-5-5-5---5/\-5-5-5---|
A|5-5-5---5/\-5-5-5---5/\-5-5-5---|
E|3-3-3---3/\-3-3-3---3/\-3-3-3---|

e|--------------------------------|
B|--------------------------------|
G|x---6b--x---6b--x---6b--x---6b--|
D|x---7b--x---7b--x---7b--x---7b--|
A|x---7b--x---7b--x---7b--x---7b--|
E|x---5b--x---5b--x---5b--x---5b--|

e|--------------------------------|
B|--------------------------------|
G|x---4b--x---4b--x---4b--x---4b--|
D|x---5b--x---5b--x---5b--x---5b--|
A|x---5b--x---5b--x---5b--x---5b--|
E|x---3b--x---3b--x---3b--x---3b--|

e|--------------------------------|
B|--------------------------------|
G|6-6-----------6-----------6-----|
D|7---7-------7---7-------7---7---|
A|7-----7---7-------7---7-------7-|
E|5-------5-----------5-----------|

e|--------------------------------|
B|--------------------------------|
G|4-4b5r4-4-------4-------4-------|
D|5-------5-------5-5b6r5-5-------|
A|5-------5-------5-------5-5b6r5-|
E|3-------3-3b4r3-3-------3-------|

Guitar I

e|--------------------------------|
B|--------------------------------|
G|6>------6<------6>------6<------|
D|7>------7<------7>------7<------|
A|7>------7<------7>------7<------|
E|5>------5<------5>------5<------|

e|--------------------------------|
B|--------------------------------|
G|4---------------4---------------|
D|5---------------5---------------|
A|5-----7p5-------5-5-5-5-5-5-5-5-|
E|3-3h5-----3h5---3-3-3-3-3-3-3-3-|

Guitar II

e|--------------------------------|
B|--------------------------------|
G|x-x-x-6---x-x-x-6---x-x-x-6-----|
D|x-x-x-7---x-x-x-7---x-x-x-7-----|
A|x-x-x-7---x-x-x-7---x-x-x-7-----|
E|x-x-x-5---x-x-x-5---x-x-x-5-----|

e|--------------------------------|
B|--------------------------------|
G|x-x-x-4---x-x-x-4---x-x-x-4-----|
D|x-x-x-5---x-x-x-5---x-x-x-5-----|
A|x-x-x-5---x-x-x-5---x-x-x-5-----|
E|x-x-x-3---x-x-x-3---x-x-x-3-----|

Guitar I

e|--------------------------------|
B|--------------------------------|
G|6-------------------------------|
D|7-------------------------------|
A|7-------------------------------|
E|5-------------------------------|

e|--------------------------------|
B|--------------------------------|
G|4-------------------------------|
D|5-------------------------------|
A|5-------------------------------|
E|3-------------------------------|

Guitar III: Acoustic

  Let ring .......................
e|0-------------------------------|
B|0-------------------------------|
G|1-------------------------------|
D|2-------------------------------|
A|2-------------------------------|
E|0-------------------------------|
  ................................
e|--------------------------------|
B|--------------------------------|
G|--------------------------------|
D|--------------------------------|
A|--------------------------------|
E|--------------------------------|
Tap to rate this tab
 
# A B C D E F G H I J K L M N O P Q R S T U V W X Y Z