Song name
# A B C D E F G H I J K L M N O P Q R S T U V W X Y Z

Misc Unsigned Bands - Insect Warfare - Evolved Into Obliteration tab

|-----------------------------------------------------------|
|-----------------------------------------------------------|
|-----------------------------------------------------------|
|---------3-6-2---------------------------------------------|
|-5-5-5-5-3-6-2---------------------------------------------|
|-3-3-3-3-1-4-0---------------------------------------------|
              let that ring out for a while
|-----------------------------------------------------------|
|-----------------------------------------------------------|
|-----------------------------------------------------------|
|--------------------------------3-6-2----------------------|
|--------------------------------3-6-2----------------------|
|-44114411441144114411441144114--1-4-0----------------------|
                               "All Life Ends..."
|-----------------------------------------------------------|
|-----------------------------------------------------------|
|-----------------------------------------------------------|
|---------3-6-2-------------3------6----3-6-2---------------|
|-5-5-5-5-3-6-2-------------3------6----3-6-2---------------|
|-3-3-3-3-1-4-0-------------1------4----1-4-0---------------|
Do that a couple of times

|-----------------------------------------------------------|
|-----------------------------------------------------------|
|-----------------------------------------------------------|
|-3------6---------------------------------3-6-2------------|
|-3------6---------------------------------3-6-2------------|
|-1------4--44114411441144114411441144114--1-4-0------------|
                                         "All Life Ends..."
|-------|
|-------|
|-------|
|-2-3-2-|
|-2-3-2-|
|-0-1-0-|
"We're All Dead!"

End
Tap to rate this tab
 
# A B C D E F G H I J K L M N O P Q R S T U V W X Y Z