Misc Unsigned Bands - Sexy Punch - Lady Killer tab

									 SEXY PUNCH

									 LADY KILLER



	Rythm Guitar - Strofa

|---------------------------------------------------------------------------------|
|---------------------------------------------------------------------------------|
|---------------------------------------------------------------------------------|
|------3-----3-----3--------3-------3-----3--------5-------5------5---------7-----|
|--5-5---5-5----5------3-3-----3-3-----3------3-3----3--3-----3-------5--5-----5--|
|---------------------------------------------------------------------------------|

|----------------|
|----------------|
|----------------|
|------3---------|
|-1-1-----1------|
|----------------|

	Lead Guitar - Lead Part

|---------------------------------------------------------------------------------|
|---------------------------------------------------------------------------------|
|---------------------------------------------------------------------------------|
|-------15--------15------15----------15-----------15------15---------------17----|
|-17-17----17-17-------17------15--15------15--15------15-----------15--15--------|
|---------------------------------------------------------------------------------|

|-----------------------------------------------------|
|-----------------------------------------------------|
|-----------------------------------------------------|
|---------17------17-----------19-----------15--------|
|-15--15-------15------17--17------13--13-------13----|
|-----------------------------------------------------|


	Rythm Guitar - Strofa 2 

|---------------------------------------------------------------------------------|
|---------------------------------------------------------------------------------|
|---------------------------------------------------------------------------------|
|------5-----5-----5--------5-------5-----5--------7-------7------7---------9-----|
|--7-7--7-7----7------5-5-----5-5-----5------5-5----5--5-----5-------7--7-----7---|
|---------------------------------------------------------------------------------|

|----------------|
|----------------|
|----------------|
|------5---------|
|-3-3-----3------|
|----------------|

	Lead Guitar - Lead2 Part

|---------------------------------------------------------------------------------|
|---------------------------------------------------------------------------------|
|---------------------------------------------------------------------------------|
|-------17--------17------17----------17-----------17------17---------------19----|
|-19-19----19-19-------19------17--17------17--17------17-----------17--17--------|
|---------------------------------------------------------------------------------|

|-----------------------------------------------------|
|-----------------------------------------------------|
|-----------------------------------------------------|
|---------19------19-----------21-----------17--------|
|-17--17-------17------19--19------15--15-------15----|
|-----------------------------------------------------|

	Pre Solo

|----------------------------------------------------------------------------|
|----------------------------------------------------------------------------|
|---7-7-7--5-5-5--3-3-3--2-2-2-----------------------------------------------|
|---7-7-7--5-5-5--3-3-3--2-2-2-----------------------------------------------|
|---5-5-5--3-3-3--1-1-1--0-0-0-----------------------------------------------|
|----------------------------------------------------------------------------|


inseriṛ il SOLO a Breve!

STROFA + LEAD X2
STROFA X4
STROFA + LEAD X2
STROFA2 + LEAD2 X2
STROFA2 X4
PRE SOLO
SOLO
STROFA + LEAD
STROFA


/ = slide up
\ = slide down
h = hammer on 
p = pull off
b = bend
r = release
x = muted string
t = tap (with finger or pick)
~ = vibrato
Tap to rate this tab
 
# A B C D E F G H I J K L M N O P Q R S T U V W X Y Z