Misc Unsigned Bands - Andrew Schar - Where Ill Be tab

				CAPO ON 3RD FRET

				INTRO GUITAR

E|----------------------------------------------------------------------|
B|---------------1-------------1---1---------------1-------------1---1--|
G|---0-----0-----0---0-----0---0---0---0-----0-----0---0-----0---0---0--|
D|-----0h2-----0-------0h2---3---2-------0h2-----0-------0h2---3---2----|
A|-3---------------0-----------------3---------------0------------------|
E|-----------3---------------------------------3------------------------|

E|------------------------------------|
B|---------------1-------------1---1--|
G|---0-----0-----0---0-----0---0---0--|
D|-----0h2-----0-------0h2---3---2----|
A|-3---------------0------------------|
E|-----------3------------------------|

E|------------------------------------|
B|---------------1-------------1---1--|
G|---0-----0-----0---0-----0---0---0--|
D|-----0h2-----0-------0h2---3---2----|
A|-3---------------0------------------|
E|-----------3------------------------|

E|------------------------------------|
B|---------------1-------------1---1--|
G|---0-----0-----0---0-----0---0---0--|
D|-----0h2-----0-------0h2---3---2----|
A|-3---------------0------------------|
E|-----------3------------------------|
Tap to rate this tab
 
# A B C D E F G H I J K L M N O P Q R S T U V W X Y Z