Song name
# A B C D E F G H I J K L M N O P Q R S T U V W X Y Z

Misc Unsigned Bands - Mr Weebl - Catface tab

catface!!

i cant belive mr. weebl isnt signed,
oh well,
he'll have to be a misc unsigned band :(

i think this is right-
the chords are a bit iffy but o well

theme

Fmaj         B5           Fmaj              B5             Fmaj        B5         F B5
----------------------------------------------------------------------------------------|
----------------------------------------------------------------------------------------|
-2-----------3-3-0---0-0-0-2-2-2-2----------3-3-3-3-0--0-0-2-2-2--------3-3-3-0---2-----|
---3----3-3-3----------------------3----3-3----------------------3---3-3-------------3--|
----------------------------------------------------------------------------------------|
----------------------------------------------------------------------------------------|

verse

Cmaj             Bmaj           Fmaj     Cmaj            Fmaj          Cmaj
----------------------------------------------------------------------------------------|
----------------------------------------------------------------------------------------|
-5-5-5-5-5---7---5---3---2---0---2--------5-5-5-5-5---7---10---7---5---3---5------------|
----------------------------------------------------------------------------------------|
----------------------------------------------------------------------------------------|
----------------------------------------------------------------------------------------|

Cmaj             Bmaj           Fmaj     Cmaj        Bmaj               Fmaj
----------------------------------------------------------------------------------------|
----------------------------------------------------------------------------------------|
-5-5-5-5-5---7---5---3---2---0---2--------5-5-5-5-5---7---5---3---2---0-----------------|
-------------------------------------------------------------------------3--------------|
----------------------------------------------------------------------------------------|
----------------------------------------------------------------------------------------|


thats it really
any changes welcome
Tap to rate this tab
 
# A B C D E F G H I J K L M N O P Q R S T U V W X Y Z