Song name
# A B C D E F G H I J K L M N O P Q R S T U V W X Y Z

Misc Unsigned Bands - Cranius - Big Blue Dress tab

BIG BLUE DRESS
Cranius
Tabbed by: Coro

I'm a noob at guitar, and probably even more at tabbing, so don't shoot me for all 
the mistakes. I know rythm ain't right, but I just wanted to give this a try since 
it's a cool and easy song.

Video:
http://www.youtube.com/watch?v=2z29Rk8814w

Intro

E||----------------|
B||----------------|
G||----------------|
D||----------------|
A||------------12\-|
E||----------------|

E||----------------|----------------|----------------|----------------|
B||----------------|----------------|----------------|----------------|
G||----------------|----------------|----------------|----------------|
D||----------------|----------------|----------------|----------------|
A||0-------2-------|3-------5-------|7-------9-------|11------12------|
E||----------------|----------------|----------------|----------------|


   ----------------|----------------|----------------|----------------|
   ----------------|----------------|----------------|----------------|
   ----------------|--------4-2--0--|--------2-0-----|----------------|
   --------10-9-7--|5---------------|3------------3--|2-0-3-2-0-------|
   12--------------|----------------|----------------|----------3-2-0-|
   ----------------|----------------|----------------|----------------|


   ----------------|----------------|----------------|----------------|
   ----------------|----------------|----------------|----------------|
   ----------------|----------------|----------------|----------------|
   ----------------|----------------|----------------|----------------|
   --------3-2--0--|--------2-0-----|--------0-------|----2-0---0-----|
   ----------------|3------------3--|1---------3--1--|0-4-----4-------|


   ----------------|
   ----------------|
   ----------------|
   ----------------|
   //7-------------|
   ----------------|


Verse

E||0---------------|0---------------|
B||1---------------|0---------------|
G||2---------------|1---------------|
D||2---------------|2---------------|
A||----------------|2---------------|
E||x---------------|----------------|


   3---------------|2---------------|
   0---------------|3---------------|
   0---------------|2---------------|
   0---------------|0---------------|
   2---------------|x---------------|
   3---------------|x---------------|


   0---------------|0---------------|
   1---------------|0---------------|
   2---------------|1---------------|
   2---------------|2---------------|
   ----------------|2---------------|
   x---------------|----------------|


   3---------------|2---------------|
   0---------------|3---------------|
   0---------------|2---------------|
   0---------------|0---------------|
   2---------------|x---------------|
   3---------------|x---------------|


Chorus

E||0---------------|3---------------|
B||1---------------|0---------------|
G||2---------------|0---------------|
D||2---------------|0---------------|
A||----------------|2---------------|
E||x---------------|3---------------|


   1---------------|0---------------|
   1---------------|0---------------|
   2---------------|1---------------|
   3---------------|0---------------|
   3---------------|2---------------|
   ----------------|----------------|

   0---------------|3---------------|
   1---------------|0---------------|
   2---------------|0---------------|
   2---------------|0---------------|
   ----------------|2---------------|
   x---------------|3---------------|


   1---------------|0---------------|
   1---------------|0---------------|
   2---------------|1---------------|
   3---------------|0---------------|
   3---------------|2---------------|
   ----------------|----------------|


E||----------------|----------------|----------------|----------------|
B||----------------|----------------|----------------|----------------|
G||----------------|----------------|----------------|----------------|
D||----------------|----------------|----------------|----------------|
A||0-------2-------|3-------5-------|7-------9-------|11------12------|
E||----------------|----------------|----------------|----------------|


   ----------------|----------------|----------------|----------------|
   ----------------|----------------|----------------|----------------|
   ----------------|--------4-2--0--|--------2-0-----|----------------|
   --------10-9-7--|5---------------|3------------3--|2-0-3-2-0-------|
   12--------------|----------------|----------------|----------3-2-0-|
   ----------------|----------------|----------------|----------------|


   ----------------|----------------|----------------|----------------|
   ----------------|----------------|----------------|----------------|
   ----------------|----------------|----------------|----------------|
   ----------------|----------------|----------------|----------------|
   --------3-2--0--|--------2-0-----|--------0-------|----2-0---0-----|
   ----------------|3------------3--|1---------3--1--|0-4-----4-------|


   ----------------|
   ----------------|
   ----------------|
   ----------------|
   //7-------------|
   ----------------|


Verse


Chorus


Solo

E||----------------|----------------|----------------|----------------|
B||----------------|----------------|----------------|----------------|
G||----------------|9---------------|----------------|----------------|
D||--------9-10-12-|--12-10-9-12-10-|9----9-10-9-----|----------------|
A||12-11-12--------|----------------|--12--------12-11\7--------------|
E||----------------|----------------|----------------|----------------|


   ----------------|----------------|----------------|----------------|
   ----------------|----------------|----------------|----------------|
   ----------------|----------------|----------------|----------------|
   ------0-2-0-----|0---------------|----------------|----------------|
   0-2-3-------3-2-|--3-2-0-2-3-2-0-|------0--2/3/7/12----------------|
   ----------------|----------------|4-0-0-----------|----------------|

Tap to rate this tab
 
# A B C D E F G H I J K L M N O P Q R S T U V W X Y Z