Misc Unsigned Bands - Tim Howell - My Tuition tab

E|----------------------       E|---------------------|
B|---3~-3-3-2~-2--2h3p2-       B|--4h5p4-6h7p6-(7)----|
G|---4~-4-4-2~-2-------2 PLAY  G|-------4-----6-------|(5)- SECOND
D|---4~-4-4-0~-0-------- TWICE D|---------------------|(7)ENDING
A|--2--2-2-0--0--0------       A|---------------------|
E|----------------------       E|---------------------|


E|--4#-4~-5-5~-|
B|--5#-5~-5-5~-|
G|--6#-4~-4-4~-|
D|--6#---------|
A|--4#---------|
E|-------------|


E|----7---5-|
B|--5-5-3-3-|
G|--6-6-0-0-|
D|--7-7-4-4-|
A|------5-5-|
E|----------|
Tap to rate this tab
 
# A B C D E F G H I J K L M N O P Q R S T U V W X Y Z