Song name
# A B C D E F G H I J K L M N O P Q R S T U V W X Y Z

Misc Unsigned Bands - Afterlife Of Ashes - Kiss In The Night tab

intro 

    Dm                    C
|-------1-0-0-0-0-0-0-0------------0-0-0-0-0---|
|-------------3-3-3-3-3------3-1-1-1-1-1-1-1--o|
|-----2-------2-2-2-2-2------------0-0-0-0-0---|
|---0---------0-0-0-0-0----2-------2-2-2-2-2---|
|------------------------3---------3-3-3-3-3--o|
|----------------------------------------------|

   G                     C
|-------------3-3-3-3-3------------0-0-0-0-0---|
|-------3-0-0-0-0-0-0-0------3-1-1-1-1-1-1-1---|
|-------------0-0-0-0-0------------0-0-0-0-0---|
|-------------0-0-0-0-0----2-------2-2-2-2-2---|
|-----2-------2-2-2-2-2--3---------3-3-3-3-3---|
|---3---------3-3-3-3-3------------------------|


Verse

Dm
Here I am 

C
There you are 

Dm
So far away 

C
So damn far

Dm
Itís dark tonight

C
Mist around our feet

Dm
Snow is falling

C
And our eyes never meet

Dm
Itís all I need

C
Just a kiss in the night

Dm
Just this one thing

C			     G     C
Could make everything right 


*repeat intro to fade*

-Written by Marley Tokunaga Isaacs 
-Performed by Afterlife of Ashes
Tap to rate this tab
 
# A B C D E F G H I J K L M N O P Q R S T U V W X Y Z