Song name
# A B C D E F G H I J K L M N O P Q R S T U V W X Y Z

Misc Unsigned Bands - Chilling - Ace Of Spades tab

|--------0--1-0---|--------0--2--0-|--------0--1-0---|--------0--2----|
|------3--------3-|------3---------|------3--------3-|------3-------3-|
|----2------------|----2-----------|----2------------|----2-----------|
|--0--------------|----------------|-----------------|----------------|
|-----------------|--0-------------|-----------------|--0-------------|
|-----------------|----------------|--3--------------|----------------|

|--------0--1-0---|--------0--5--2-|--------0--1-0---|--------0--2----|
|------3--------3-|------3---------|------3--------3-|------3-------3-|
|----2------------|----2-----------|----2------------|----2-----------|
|--0--------------|----------------|-----------------|----------------|
|-----------------|--0-------------|-----------------|--0-------------|
|-----------------|----------------|--3--------------|----------------|
Tap to rate this tab
 
# A B C D E F G H I J K L M N O P Q R S T U V W X Y Z