Song name
# A B C D E F G H I J K L M N O P Q R S T U V W X Y Z

Misc Unsigned Bands - Arvyles - Going Up The Mountain tab

-----------------------------------------------------------------------------
		  Going up the mountain - Arvyles
-----------------------------------------------------------------------------
Tabbed by:123498765
Email:lymperopov@sch.gr

Tuning:Standard

e|-----------------------------0h2-----3-2--2h3--2--------------------------|
B|-------1-----------1-------------3----------------------------------------|
G|---------0-----------0----2-----------------------------------------------|
D|----2-----------2-------0-------------------------------------------------|
A|--0---------3-------------------------------------------------------------|
E|--------------------------------------------------------------------------|


Chords Guitar & Keyboard

e|---0-----0-----2-----3----------------------------------------------------|
B|---1-----1-----3-----3----------------------------------------------------|
G|---0-----0-----2-----2----------------------------------------------------|
D|---2-----2-----0-----0----------------------------------------------------|
A|---0-----3----------------------------------------------------------------|
E|--------------------------------------------------------------------------|


************************************

| /   slide up
| \   slide down
| h   hammer-on
| p   pull-off
| ~   vibrato
| +   harmonic
| x   Mute note
| b   Bend
| pb  Pre-bend
| br  Bend release
| pbr Pre-bend release
| brb Bend release bend

************************************
Tap to rate this tab
 
# A B C D E F G H I J K L M N O P Q R S T U V W X Y Z