Song name
# A B C D E F G H I J K L M N O P Q R S T U V W X Y Z

Misc Unsigned Bands - Steadyfall - Feelin Me tab

-------------------------------------------------------------------------------
			     Feelin' Me - Steadyfall
-------------------------------------------------------------------------------
Tabbed by: derekennamer
Email:

Tuning: Drop C

To play the alarm clock sound, strum the strings above the nut. I've
denoted this part with exclamation points (!).

I will add more later!

Intro
D|--------------------------------------------------------------------|
A|--------------------------------------------------------------------|
F|--------------------------------------------------------------------|
C|--------------!--!------------!--!-----------!--!------------0-3-0-1|
G|--------------!--!------------!--!-----------!--!------------0-3-0-1|
C|3/12\3--0-0---!--!--3b--0-0---!--!--6b-0-0---!--!--3b--0-0---0-3-0-1|

D|------------------------------------------------------------|
A|------------------------------------------------------------|
F|------------------------------------------------------------|
C|0-0---!--!------0-0---!--!-----0-0---!--!------0-0---0-3-0-1|
G|0-0---!--!------0-0---!--!-----0-0---!--!------0-0---0-3-0-1|
C|0-0---!--!--3b--0-0---!--!--6b-0-0---!--!--3b--0-0---0-3-0-1|

Verse
D|---------------------------------------------|
A|---------------------------------------------|
F|---------------------------------------------| 2x
C|00---0-3---00---0-3---00---0-3---00---0-3-0-1|
G|00---0-3---00---0-3---00---0-3---00---0-3-0-1|
C|00---0-3---00---0-3---00---0-3---00---0-3-0-1|
  **   *     **   *     **   *     **   *   *

Chorus
D|--------------------------------------------|    
A|--------------------------------------------|    
F|---5/7-7-7--x-5/7-7-7-----------------------| 3x 
C|0--x/x-x-x--x-x/x-x-x--0-3--3-3-3-0-1--1-1-1|    
G|0--3/5-5-5--x-3/5-5-5--0-3--3-3-3-0-1--1-1-1|    
C|0----------------------0-3--3-3-3-0-1--1-1-1|    

D|----------------------------------|    
A|----------------------------------|    
F|---5/7-7-7--x-5/7-7-7-------------|
C|0--x/x-x-x--x-x/x-x-x--0-3-----0-1|    
G|0--3/5-5-5--x-3/5-5-5--0-3-----0-1|    
C|0----------------------0-3-----0-1|

************************************

| /   slide up
| \   slide down
| h   hammer-on
| p   pull-off
| ~   vibrato
| +   harmonic
| x   Mute note
| b   Bend
| pb  Pre-bend
| br  Bend release
| pbr Pre-bend release
| brb Bend release bend

************************************
Tap to rate this tab
 
# A B C D E F G H I J K L M N O P Q R S T U V W X Y Z