Song name
# A B C D E F G H I J K L M N O P Q R S T U V W X Y Z

Misc Unsigned Bands - Arvyles - Last Song tab

--------------------------------------------------------------------------
			     Last Song - Arvyles
--------------------------------------------------------------------------
Tabbed by:123498765
Email:lymperopov@sch.gr

Tuning:Standard

e|---------0-------------------0-----------------0-----------0------------|
B|-------3---3--------------2----2----------------------------------------|
G|-----4-------4----------2--------2---------0h1--1------0h1---1----------|
D|---4-----------4-----2-------------2------2------2---2--------2---------|
A|-0-----------------0-----------------2---2--------2-2-----------2-------|
E|---------------------------------------0-----------0--------------------|


Chords for Guitar

e|------------------------------------------------------------------------|
B|---3-3---3-3---2-2---2-2------------------------------------------------|
G|---4-4---4-4---2-2---2-2---1-1---1-1---1-1---1-1------------------------|
D|---4-4---4-4---2-2---2-2---2-2---2-2---2-2---2-2------------------------|
A|---0-0---0-0---0-0---0-0---2-2---2-2---2-2---2-2------------------------|
E|---------------------------0-0---0-0---0-0---0-0------------------------|


Solo For Guitar

e|------------------------------------------------------------------------|
B|-----7---------------------7--------------------------------------------|
G|--9b---9b-7-----------9--7---7--9b--------------9b---7h9----------------|
D|-------------9-7v----9------------9-9-------7------7-----9v-------------|
A|----------------------------------------7h9---9-------------------------|
E|------------------------------------------------------------------------|

e|------------------------------------------------------------------------|
B|--------------10-12-10v-------------------------------------------------|
G|-9h11--7s9-11----------------7-9-9b-------9--9-7---7-7-7----------------|
D|-------------------------9-7----------7-7--7-----9-------9-9v-----------|
A|------------------------------------------------------------------------|
E|------------------------------------------------------------------------|

e|--------------------------7-7v------------------------------------------|
B|---------------------7h9p7-----------------------10---7-----------------|
G|----7------------6s7------------9b-7b-9b-7b--------9-7-7----------------|
D|-----9-7-7-7V-------------------------------9v-7--------7-7v------------|
A|--9---------------------------------------------------------------------|
E|------------------------------------------------------------------------|

e|------------------------------------------------------------------------|
B|---------7---7V---------7-----------------------------------------------|
G|-----9----7--7V-----7h9---9-7-7-9-7v------------------------------------|
D|-------------0V---------------------------------------------------------|
A|--7---7-----------------------------------------------------------------|
E|------------------------------------------------------------------------|
Tap to rate this tab
 
# A B C D E F G H I J K L M N O P Q R S T U V W X Y Z