Song name
# A B C D E F G H I J K L M N O P Q R S T U V W X Y Z

Misc Unsigned Bands - Nick Jr - Colors Of The Rainbow tab

Nick Jr. - Colors of the Rainbow

Tabbed by Fei

Motivation: Extreme boredom.

~~~~~~~~~~~~~~~

h = hammer on
p = pull off
\ = slide down

~~~~~~~~~~~~~~~

E:-------------------------------|
B:-------8-------6---------------|
G:-9-9-9---7-7-7----------10-9\7-|
D:-----------------10-10---------|
A:-------------------------------|
E:-------------------------------|

E:----------------------------------|
B:-------8-------6------------------|
G:-9-9-9---7-7-7----------10-9h10p7-|
D:-----------------10-10------------|
A:----------------------------------|
E-----------------------------------|

E:---------------8----|-------------------|
B:-10----8----10---10-|-10----8-----------|
G:----10--------------|----10------10-9-7-|
D:---------10---------|---------10--------|
A:--------------------|-------------------|
E:--------------------|-------------------|

E:-------------------------------|
B:-------8-------6---------------|
G:-9-9-9---7-7-7----------10-9\7-|
D:-----------------10-10---------|
A:-------------------------------|
E:-------------------------------|

E:--------------------------9-10-|
B:-------8-------6----10-12------|
G:-9-9-9---7-7-7---12------------|
D:-------------------------------|
A:-------------------------------|
E:-------------------------------|
Tap to rate this tab
 
# A B C D E F G H I J K L M N O P Q R S T U V W X Y Z