Misc Unsigned Bands - Project Rocket - Someday tab

-------------------------------------------------------------------------------
			     SOMEDAY - Project Rocket
-------------------------------------------------------------------------------
Tabbed by: Chris Godoy
Email: zadosroma32@yahoo.com

Tuning: Standard

Barre All Chords except E

B!:

G|-3
D|-4
A|-1
E|-x
  
 Intro:
 

  B   
e|-2------------2--------------2-------------2-------------------------------|
B|---4------------4---------------4------------4-----------------------------|
G|------4-----------4----------------4-----------4---------------------------|
D|---------------------------------------------------------------------------|
A|---------------------------------------------------------------------------|
E|---------------------------------------------------------------------------|

  D#m
e|-2------------2---------------2-------------2------------------------------|
B|---4------------4----------------4------------4----------------------------|
G|-----3------------3-----------------3------------3-------------------------|
D|---------------------------------------------------------------------------|
A|---------------------------------------------------------------------------|
E|---------------------------------------------------------------------------|

  E
e|---------------------------------------------------------------------------|
B|-0-------------0---------------0---------------0---------------------------|
G|---1-------------1---------------1---------------1-------------------------|
D|-----3-------------2---------------2---------------2-----------------------|
A|---------------------------------------------------------------------------|
E|---------------------------------------------------------------------------|

  F#
e|-2-------------------------------------------------------------------------|
B|-2-------------------------------------------------------------------------|
G|-3-------------------------------------------------------------------------|
D|-4-------------------------------------------------------------------------|
A|-4-------------------------------------------------------------------------|
E|-2-------------------------------------------------------------------------|

Verse 1:

B        D#m
Baby, oh baby

E                F#
I hate to see you this way

    B               D#m
Cuz maybe, maybe oh baby.

         E                F#
We'll be together forever Someday.


Chorus:

        E              F
Until then, here's a song.

        E               F
Until then, just sing along.

                 B
And know that I love you

       B!           Gm
And I hold you so close

F#     E          F#   
To My Heart; To My Heart


Verse 2:

B        D#m
Baby, oh baby

           E                F#
Won't you wipe those tears away

     B                  D#m
Cuz baby, you know that Someday

         E                 F#
I'll be right here all for you

[Chorus]

Bridge: (All power chords) (x3)

B  E D# F#  E D#


Outro/Bridge: (All power chords)

B  E   D#    F#          E   D#   B
   No other girl could fill your shoes

   E   D#  F#       E   D#    B
No other girl is quite like you

     E  D#   F#      E   D#    B      
You are The One, oh girl it's true
   
   E   D#  F#       E   D#    B
No other girl is quite like you

End On B
Tap to rate this tab
 
# A B C D E F G H I J K L M N O P Q R S T U V W X Y Z