Misc Unsigned Bands - Outrageus - Make It Work tab

outRAGEus!  Make It Work

Intro & Verse

e|-----------------------------------------|
b|-----------------------------------------|
g|-----------------------------------------| 
d|-9--x-x--9--x-x--9--x--2--x-x--4--x-x--4-|
a|-9--x-x--9--x-x--9--x--2--x-x--4--x-x--4-|
e|-7--x-x--7--x-x--7--x--0--x-x--2--x-x--2-|  Repeat 7x

Pre-chorus
e|--------------------------------------|
b|--------------------------------------|
g|--------------------------------------| 
d|-222222---222222---444444---44444444--|
a|-222222---222222---444444---44444444--|
e|-000000---000000---222222---22222222--|

Chorus
e|--------------------------------------------|
b|--------------------------------------------|
g|--------------------------------------------| 
d|-99---222---44---222---99---444---22---222--|
a|-99---000---44---222---99---444---22---222--|
e|-77---000---22---000---77---222---00---000--|  2x

e|-----------------------|
b|-----------------------|
g|-----------------------| 
d|-99---222---44---222---|
a|-99---000---44---222---|
e|-77---000---22---000---| 

Verse
e|-----------------------------------------|
b|-----------------------------------------|
g|-----------------------------------------| 
d|-9--x-x--9--x-x--9--x--2--x-x--4--x-x--4-|
a|-9--x-x--9--x-x--9--x--2--x-x--4--x-x--4-|
e|-7--x-x--7--x-x--7--x--0--x-x--2--x-x--2-|

e|-----------------------------------------|
b|-----------------------------------------|
g|-----------------------------------------| 
d|-9--x-x--9--x-x--9--x--2--x-x--4--x-x--4-|
a|-9--x-x--9--x-x--9--x--2--x-x--4--x-x--4-|
e|-7--x-x--7--x-x--7--x--0--x-x--2--x-x--2-|

e|-----------------------------------|
b|-----------------------------------|
g|-----------------------------------| 
d|-9--x-x--9--x-x--9--x--2------444--|
a|-9--x-x--9--x-x--9--x--2------444--|
e|-7--x-x--7--x-x--7--x--0------222--|

e|-----------------------------------------|
b|-----------------------------------------|
g|-----------------------------------------| 
d|-9--x-x--9--x-x--9--x--2--x-x--4--x-x--4-|
a|-9--x-x--9--x-x--9--x--2--x-x--4--x-x--4-|
e|-7--x-x--7--x-x--7--x--0--x-x--2--x-x--2-| Repeat 2x

Pre-chorus
e|--------------------------------------|
b|--------------------------------------|
g|--------------------------------------| 
d|-222222---222222---444444---44444444--|
a|-222222---222222---444444---44444444--|
e|-000000---000000---222222---22222222--|

Chorus

e|--------------------------------------------|
b|--------------------------------------------|
g|--------------------------------------------| 
d|-99---222---44---222---99---444---22---222--|
a|-99---000---44---222---99---444---22---222--|
e|-77---000---22---000---77---222---00---000--|  2x

e|-----------------------|
b|-----------------------|
g|-----------------------| 
d|-99---222---44---222---|
a|-99---000---44---222---|
e|-77---000---22---000---| 

Bridge
e|-----------------------------------------|
b|-----------------------------------------|
g|-----------------------------------------| 
d|-2222222222222222---44444444---22222222--|
a|-2222222222222222---44444444---22222222--|
e|-0000000000000000---22222222---00000000--|

e|-------------------------------------------|
b|-------------------------------------------|
g|-------------------------------------------| 
d|-2222222222222222---44---2222---44---2222--|
a|-2222222222222222---44---2222---44---2222--|
e|-0000000000000000---22---0000---22---0000--|

Pre-chorus
e|--------------------------------------|
b|--------------------------------------|
g|--------------------------------------| 
d|-222222---222222---444444---44444444--|
a|-222222---222222---444444---44444444--|
e|-000000---000000---222222---22222222--|

Chorus (repeat 2x
e|--------------------------------------------|
b|--------------------------------------------|
g|--------------------------------------------| 
d|-99---222---44---222---99---444---22---222--|
a|-99---000---44---222---99---444---22---222--|
e|-77---000---22---000---77---222---00---000--|  2x

e|-----------------------|
b|-----------------------|
g|-----------------------| 
d|-99---222---44---222---|
a|-99---000---44---222---|
e|-77---000---22---000---| 

Outro
e|-----------------------------------------|
b|-----------------------------------------|
g|-----------------------------------------| 
d|-9--x-x--9--x-x--9--x--2--x-x--4--x-x--4-|
a|-9--x-x--9--x-x--9--x--2--x-x--4--x-x--4-|
e|-7--x-x--7--x-x--7--x--0--x-x--2--x-x--2-| Repeat 2x

End on:
e|---|
b|---|
g|---| 
d|-9-|
a|-9-|
e|-7-| 
Tap to rate this tab
 
# A B C D E F G H I J K L M N O P Q R S T U V W X Y Z