Misc Unsigned Bands - The Clean - Point That Thing Somewhere Else tab

Song:      Point That Thing Somewhere Else
Artist:    The Clean
Guitarist: David Kilgour
This song may be hard to learn because a lot of it is droney adlibbing.
However I've tabbed out all the little licks he uses throughout the song so its just 
where to put them. Also you'll have to work out the rhythm yourself i've tried my best to 
it but...

Its all played clean (hehe) with reverb and lots of twang!

Intro
e|--------------------------------------------------------------------|
B|------------------------------------------xxxx/---------------------|
G|----0---------0--0---------444444444444---xxxx/---------------------|
D|---3---0--0--3--3---0--0---777777777777---xxxx/---------------------|
A|------3--2---------3--2----555555555555-----------------------------|
E|--------------------------------------------------------------------|
                                            *gradual slide down neck
Main Riff (Verse)
e|--------------------------------------|
B|--------------------------------------|
G|---7777777777777777975557555444545----|
D|---0000000000000000000000000000000----|
A|--------------------------------------|
E|--------------------------------------|
     D               C         B/D

Alternate Riff 1
e|---------------------------------------------------|
B|---------------------------------------------------|
G|---12h141414141414-12h14p12-55-121212h14p12-44-----|
D|---0--000000000000-0~-------00-0-0-0--------00-----|
A|---------------------------------------------------|
E|---------------------------------------------------|
     D                C       B/D

Alternate Riff 2 (usually follows alternate riff 1)
e|------------------------------------------------------------|
B|------------------------------------------------------------|
G|---1212121212-11-9-7-1212121212-11-9-7-5-7-555-4-5-4-5/7----|
D|---0-0-0-0-0--0--0-0-0-0-0-0-0--0--0-0-0-0-000-0-0-0-0-0----|
A|------------------------------------------------------------|
E|------------------------------------------------------------|

Lick 1 (busts this badboy out at 2.44)
e|--------------------------------------------|
B|---x/----------------77-7777788887777777----|
G|---x/----------------77-7777777777777777----|
D|---x/----------------00-0000000000000000----|
A|--------------------------------------------|
E|--------------------------------------------|
     *Gradual slide down neck

Lick 2 (busts out in background occasionally)
e|------------------------------------------------------------------|
B|------------------------------------------------------------------|
G|---111111-12-1414141414141414141414---111111-12-14141414141414----|
D|---0-0-0--0--0000000000000000000000---0-0-0--0--00000000000000----|
A|------------------------------------------------------------------|
E|------------------------------------------------------------------|

Those are all the main riffs I could pick out of that song there are ptheres scattered 
but just play along and drone in! Hope some actually knows this band and enjoyed this tab!
Tap to rate this tab
 
# A B C D E F G H I J K L M N O P Q R S T U V W X Y Z