Song name
# A B C D E F G H I J K L M N O P Q R S T U V W X Y Z

Misc Unsigned Bands - Frank The Tank - Curse Of The Ancient Empire tab

Band:frank the tank                     .= palm mute
song:curse of the ancient empire
tuning:drop A 7-string [AEADGBe]
intro/riff 1: guitar 1 x2 
[--------------------------------------------------------------------------]
[--------------------------------------------------------------------------]
[--------------------------------------------------------------------------]
[--------------------------------------------------------------------------]
[------------------------4h7-----------------------------------------------]
[----4h7-----3h5-----4h7-----4h7-----4h7--5-4-3----------------------------]
[4h7-----3h5-----4h7-------------4h7------5-4-3----------------------------]
                                          . . .

intro/riff 1:guitar 2 x2 
[--------------------------------------------------------------------------]
[--------------------------------------------------------------------------]
[--------------------------------------------------------------------------]
[--------------------------------------------------------------------------]
[--------------------------------------------------------------------------]
[-----------------------------------------5-4-3----------------------------]
[-----------------------------------------5-4-3----------------------------]
                                          . . .
then both guitars come in playing riff 1 x4

riff 2:x2
[--------------------------------------------------------------------------]
[--------------------------------------------------------------------------]
[--------------------------------------------------------------------------]
[---------------------------5---5-----------------5----7-------------------]
[---------------------------8---8-----------------8---10-------------------]
[0-------00--000-000-000-000-------000-000-000-000-------------------------]
[0-------00--000-000-000-000--0----000-000-000-000--0----------------------]
         ..  ... ... ... ...  .    ... ... ... ...  .

riff 3:part1
[--------------------------------------------------------------------------]
[--------------------------------------------------------------------------]
[--------------------------------------------------------------------------]
[----------9h13-----9h13------------9h13------9h13-------------------------]
[------8h12----8h12------------8h12------8h12------------------------------]
[--7h10-------------------7h10---------------------------------------------]
[--------------------------------------------------------------------------]
riff 3: part 2
[--------------------------------------------------------------------------]
[--------------------------------------------------------------------------]
[--------------------------------------------------------------------------]
[----------9h13-----9h13---------------------------------------------------]
[------8h12----8h12------8h12------8h12------------------------------------]
[--7h10-----------------------7h10-----------------------------------------]
[--------------------------------------------------------------------------]

riff 3p1
riff 3p2
riff 3p1
riff 3p2
riff 3p1
riff 3p2
riff 3p1
riff 3p2

riff 4x4
[--------------------------------------------------------------------------]
[--------------------------------------------------------------------------]
[--------------------------------------------------------------------------]
[--------------------------------------------------------------------------]
[--------------------------------------------------------------------------]
[--------------------------------------------------------------------------]
[-000-0-0000-000-0-0000--554411--------------------------------------------]
  ... . .... ... . ....  ......
riff 5x4
[--------------------------------------------------------------------------]
[--------------------------------------------------------------------------]
[--------------------------------------------------------------------------]
[--------------------------------------------------------------------------]
[--------------------------------------------------------------------------]
[--------------------------------------------------------------------------]
[--5t---1t---4t---1t-----5t---1t---4t---1t---2t---1t-----------------------]

sweep riff on the last 2 times of riff 5, this is played over it

[-----------12h15p12------------------------------------12h15p12-----------]
[--------15---------15--------------------------------15--------15---------]
[-14--14---------------14---14--141415171514--14---14-------------14-------]
[--------------------------------------------------------------------------]
[--------------------------------------------------------------------------]
[--------------------------------------------------------------------------]
[--------------------------------------------------------------------------]

riff 6/outro x2
[--------------------------------------------------------------------------]
[--------------------------------------------------------------------------]
[--------------------------------------------------------------------------]
[--------------------------------------------------------------------------]
[--------------------------------------------------------------------------]
[-4---0---3---0----4---0---3---0---1---0-----------------------------------]
[-5---1---4---1----5---1---4---1---2---1-----------------------------------]
  .   .   .   .    .   .   .   .   .   .


t=tremelo picking
h=hammer on
p=pull off
Tap to rate this tab
 
# A B C D E F G H I J K L M N O P Q R S T U V W X Y Z