Misc Unsigned Bands - Kelsey - The Devil And God Are Raging Inside Me tab

-------------------------------------------------------------------------------
			     The Devil and God are Raging Inside Me - Kelsey
-------------------------------------------------------------------------------
Tabbed by: rockobsesse
Email: kelseyluo@hotmail.com

Hey guys, this is an original song i wrote about feeling victim to life's problems and 
horrible feeling of being trapped in a revolving circle with no way out.
and yes, the song title was taken from the Brand New album of the same name :)

Tuning: Standard

Verse 1

Why do we belong here/in this world so cold/there's no one here to save you when your 
low
destruction and dissolution we're torn into flames/let's piece it back together to try 
stay sane

e|-5555-xxx-xxx-55-1111-xxx-xxx-11-1111-xxx-xxx-11-xxxx-xx-55-------------------|
B|-6666-xxx-xxx-66-1111-xxx-xxx-11-3333-xxx-xxx-33-5555-xx----88-66-55----------|
G|-7777-xxx-xxx-77-2222-xxx-xxx-22-3333-xxx-xxx-33-6666-xx----------------------|
D|-7777-xxx-xxx-77-3333-xxx-xxx-33-3333-xxx-xxx-33-7777-xx----------------------|
A|-5555-xxx-xxx-55-3333-xxx-xxx-33-1111-xxx-xxx-11-4444-xx----------------------|
E|-----------------1111-xxx-xxx-11----------------------------------------------|

Pre-Chorus

so we stand/we stand strong/in fight of this only life we have

e|------------------------------------------------------------------------------|
B|------------------------------------------------------------------------------|
G|-------3-------2-0-2-3-2-0-2-0---3-2------------------------------------------|
D|---0-3-------2-----------------3-----2----------------------------------------|
A|-1-------0-4---------------------------4--------------------------------------|
E|------------------------------------------------------------------------------|

Chorus

and i will pick myself back up/threatening things they're bound to say
you can let the pain come with you/or push it all away

e|-5555-5555-5555-55-1111-1111-1111-111-1111-1111-1111-11-xxxx-xx-55------------|
B|-6666-6666-6666-66-1111-1111-1111-111-3333-3333-3333-33-5555-55---88-66-55----|
G|-7777-7777-7777-77-2222-2222-2222-222-3333-3333-3333-33-6666-66---------------|
D|-7777-7777-7777-77-3333-3333-3333-333-3333-3333-3333-33-7777-77---------------|
A|-5555-5555-5555-55-3333-3333-3333-333-1111-1111-1111-11-4444-44---------------|
E|-------------------1111-1111-1111-111-----------------------------------------|

the blinding light is all i see/the devil's conversing inside me
if i let my heart out/they will burn it down/but if i put it back in it'll never be found

e|-5555-5555-5555-55-1111-1111-1111-1-1-----------------------------------------|
B|-6666-6666-6666-66-1111-1111-1111-1-1-----------------------------------------|
G|-7777-7777-7777-77-2222-2222-2222-2-2-------3-------2-0-2-3-2-0-2-0---3-2-----|
D|-7777-7777-7777-77-3333-3333-3333-3-3---0-3-------2-----------------3-----2---|
A|-5555-5555-5555-55-3333-3333-3333-3-3--1------0-4---------------------------4-|
E|-------------------1111-1111-1111-1-1-----------------------------------------|

Bridge

e|-5555-5555-xxxx-5555-5555-xxxx-1111-1111-xxxx-3333-3-3-xx---------------------|
B|-6666-6666-xxxx-5555-5555-xxxx-1111-1111-xxxx-3333-3-3-xx---------------------|
G|-7777-7777-xxxx-6666-6666-xxxx-2222-2222-xxxx-3333-3-3-xx---------------------|
D|-7777-7777-xxxx-6666-6666-xxxx-3333-3333-xxxx-5555-5-5-xx---------------------|
A|-5555-5555-xxxx-7777-7777-xxxx-3333-3333-xxxx-5555-5-5-xx---------------------|
E|-------------------------------1111-1111------3333-3-3-xx---------------------|

Verse 2

i stay locked inside my cage/and i'll never come out until the break of day
the black hole is an illusion/suffocating me inside/please let me out now or i'll put up 
fight

e|-5555-xxx-xxx-55-1111-xxx-xxx-11-1111-xxx-xxx-11-xxxx-xx-55-------------------|
B|-6666-xxx-xxx-66-1111-xxx-xxx-11-3333-xxx-xxx-33-5555-xx----88-66-55----------|
G|-7777-xxx-xxx-77-2222-xxx-xxx-22-3333-xxx-xxx-33-6666-xx----------------------|
D|-7777-xxx-xxx-77-3333-xxx-xxx-33-3333-xxx-xxx-33-7777-xx----------------------|
A|-5555-xxx-xxx-55-3333-xxx-xxx-33-1111-xxx-xxx-11-4444-xx----------------------|
E|-----------------1111-xxx-xxx-11----------------------------------------------|

Pre-Chorus

so we stand/we stand strong/in fight of this only life we have

e|------------------------------------------------------------------------------|
B|------------------------------------------------------------------------------|
G|-------3-------2-0-2-3-2-0-2-0---3-2------------------------------------------|
D|---0-3-------2-----------------3-----2----------------------------------------|
A|-1-------0-4---------------------------4--------------------------------------|
E|------------------------------------------------------------------------------|

Chorus

and i will pick myself back up/threatening things they're bound to say
you can let the pain come with you/or push it all away

e|-5555-5555-5555-55-1111-1111-1111-111-1111-1111-1111-11-xxxx-xx-55------------|
B|-6666-6666-6666-66-1111-1111-1111-111-3333-3333-3333-33-5555-55----88-66-55---|
G|-7777-7777-7777-77-2222-2222-2222-222-3333-3333-3333-33-6666-66---------------|
D|-7777-7777-7777-77-3333-3333-3333-333-3333-3333-3333-33-7777-77---------------|
A|-5555-5555-5555-55-3333-3333-3333-333-1111-1111-1111-11-4444-44---------------|
E|-------------------1111-1111-1111-111-----------------------------------------|

the blinding light is all i see/the devil's conversing inside me
if i let my heart out/they will burn it down/but if i put it back in it'll never be found
--
e|-5555-5555-5555-55-1111-1111-1111-1-1-----------------------------------------|
B|-6666-6666-6666-66-1111-1111-1111-1-1-----------------------------------------|
G|-7777-7777-7777-77-2222-2222-2222-2-2-------3-------2-0-2-3-2-0-2-0---3-2-----|
D|-7777-7777-7777-77-3333-3333-3333-3-3---0-3-------2-----------------3-----2---|
A|-5555-5555-5555-55-3333-3333-3333-3-3--1------0-4---------------------------4-|
E|-------------------1111-1111-1111-1-1-----------------------------------------|

Bridge

so is this where/the broken pieces come back together again

e|-5555-55-xxxx-5555-5555-5555-3333-3333-3333-1111-1111-1111-3333-3333-3333-----|
B|-6666-66-xxxx-6666-6666-6666-5555-5555-5555-3333-3333-3333-5555-5555-5555-----|
G|-7777-77-xxxx-7777-7777-7777-5555-5555-5555-3333-3333-3333-5555-5555-5555-----|
D|-7777-77-xxxx-7777-7777-7777-5555-5555-5555-3333-3333-3333-5555-5555-5555-----|
A|-5555-55-xxxx-5555-5555-5555-3333-3333-3333-1111-1111-1111-3333-3333-3333-----|
E|------------------------------------------------------------------------------|

do you feel/any empathy towards everything around you/at all?

e|-5555-5555-5555-3333-3333-3333-1111-1111-1111-3333-3333-3333------------------|
B|-6666-6666-6666-5555-5555-5555-3333-3333-3333-5555-5555-5555------------------|
G|-7777-7777-7777-5555-5555-5555-3333-3333-3333-5555-5555-5555------------------|
D|-7777-7777-7777-5555-5555-5555-3333-3333-3333-5555-5555-5555------------------|
A|-5555-5555-5555-3333-3333-3333-1111-1111-1111-3333-3333-3333------------------|
E|------------------------------------------------------------------------------|

cuz i wasn't brought up to be made this way/i'm gonna stay true to the things i say

e|1111-1111-1111-3333-3333-3333-5555-5555-5555-0000-0000-0000-------------------|
B|1111-1111-1111-5555-5555-5555-6666-6666-6666-2222-2222-2222-------------------|
G|2222-2222-2222-5555-5555-5555-7777-7777-7777-2222-2222-2222-------------------|
D|3333-3333-3333-5555-5555-5555-7777-7777-7777-2222-2222-2222-------------------|
A|3333-3333-3333-3333-3333-3333-5555-5555-5555-0000-0000-0000-------------------|
E|1111-1111-1111----------------------------------------------------------------|

conformity is not an issue/when you know just who you are

e|-1111-1111-1111-1111-1111-1111-0000-0000-0000-xxx-xxx-xxx-00------------------|
B|-3333-3333-3333-1111-1111-1111-2222-2222-2222-xxx-xxx-xxx-22------------------|
G|-3333-3333-3333-2222-2222-2222-2222-2222-2222-xxx-xxx-xxx-22------------------|
D|-3333-3333-3333-3333-3333-3333-2222-2222-2222-xxx-xxx-xxx-22------------------|
A|-1111-1111-1111-3333-3333-3333-0000-0000-0000-xxx-xxx-xxx-00------------------|
E|----------------1111-1111-1111------------------------------------------------|

Chorus

and i will pick myself back up/threatening things they're bound to say
you can let the pain come with you/or push it all away

e|-5555-5555-5555-55-1111-1111-1111-111-1111-1111-1111-11-xxxx-xxx-55-----------|
B|-6666-6666-6666-66-1111-1111-1111-111-3333-3333-3333-33-5555-555----88-66-55--|
G|-7777-7777-7777-77-2222-2222-2222-222-3333-3333-3333-33-6666-666--------------|
D|-7777-7777-7777-77-3333-3333-3333-333-3333-3333-3333-33-7777-777--------------|
A|-5555-5555-5555-55-3333-3333-3333-333-1111-1111-1111-11-4444-444--------------|
E|-------------------1111-1111-1111-111-----------------------------------------|

the blinding light is all i see/the devil's conversing inside me
if i let my heart out/they will burn it down/but if i put it back in it'll never be found

e|-5555-5555-5555-55-1111-1111-1111-1-1-----------------------------------------|
B|-6666-6666-6666-66-1111-1111-1111-1-1-----------------------------------------|
G|-7777-7777-7777-77-2222-2222-2222-2-2-------3-------2-0-2-3-2-0-2-0---3-2-----|
D|-7777-7777-7777-77-3333-3333-3333-3-3---0-3-------2-----------------3-----2---|
A|-5555-5555-5555-55-3333-3333-3333-3-3-1-------0-4---------------------------4-|
E|-------------------1111-1111-1111-1-1-----------------------------------------|

Outro

e|-5555-5555-xxxx-5555-5555-xxxx-1111-1111-xxxx-3333-3333-3333-5----------------|
B|-6666-6666-xxxx-5555-5555-xxxx-1111-1111-xxxx-3333-3333-3333-6----------------|
G|-7777-7777-xxxx-6666-6666-xxxx-2222-2222-xxxx-3333-3333-3333-7----------------|
D|-7777-7777-xxxx-7777-7777-xxxx-3333-3333-xxxx-5555-5555-5555-7----------------|
A|-5555-5555-xxxx-7777-7777-xxxx-3333-3333-xxxx-5555-5555-5555-5----------------|
E|-------------------------------1111-1111------3333-3333-3333------------------|
Tap to rate this tab
 
# A B C D E F G H I J K L M N O P Q R S T U V W X Y Z