Misc Unsigned Bands - Darius Heath - Reach tab

Song: Reach
Artist: Darius Heath
Album: Nightmare (Un-released)
Year: 2010
Tuning: Standard (EADbge)

Intro
e|------------------------------------------------------------|
g|------------------------------------------------------------|
b|-----/14~~~\13-14-16-17~~~17h19p17p16h17p16p14*~~~~---------|
D|------------------------------------------------------------|
A|----------------------------------------------------3/12\0--|
E|------------------------------------------------------------|


Verse A
e|---------12-13-12------------12-13-12----------|
g|----12-13--------13-12--12-13---------13-12----|
b|--14------------------14-----------------------|
D|-----------------------------------------------|
A|-----------------------------------------------|
E|-----------------------------------------------|

e|---------12-13-12-------13-12----------------------|
g|----12-13--------13-12-------13-12-----------------|
b|--13------------------13----------14-10-9----------|
D|---------------------------------------------------|
A|---------------------------------------------------|
E|---------------------------------------------------|

e|---------12-13-12------------12-13-12----------|
g|----12-13--------13-12--12-13---------13-12----|
b|--14------------------14-----------------------|
D|-----------------------------------------------|
A|-----------------------------------------------|
E|-----------------------------------------------|

e|---------12-13-12-------13-12----------------------|
g|----12-13--------13-12-------13-12-----------------|
b|--13------------------13----------14-10-9*V--------|
D|---------------------------------------------------|
A|---------------------------------------------------|
E|---------------------------------------------------|


Chorus A
e|-----------------------------------------------|
g|-----------------------------------------------|
b|--9h10h13(x6)-7h9h13(x6)-9h10h13(x6)-----------|
D|-----------------------------------------------|
A|-----------------------------------------------|
E|-----------------------------------------------|

e|-----------------------------------------------|
g|---13p10p9h10h13p9p7h9h13p7p6h7h13p6p4---------|
b|-----------------------------------------------|
D|-----------------------------------------------|
A|-----------------------------------------------|
E|-----------------------------------------------|

e|-----------------------------------------------|
g|-----------------------------------------------|
b|--9h10h13(x6)-7h9h13(x6)-9h10h13(x6)-----------|
D|-----------------------------------------------|
A|-----------------------------------------------|
E|-----------------------------------------------|

e|-----------------------------------------------|
g|-----------------------------------------------|
b|---13p10p9h10h13p9p7h9h13p7p6h7h13p6p4\2-------|
D|-----------------------------------------------|
A|-----------------------------------------------|
E|-----------------------------------------------|


Verse B
e|---------12-13-12------------12-13-12----------|
g|----12-13--------13-12--12-13---------13-12----|
b|--14------------------14-----------------------|
D|-----------------------------------------------|
A|-----------------------------------------------|
E|-----------------------------------------------|

e|---------12-13-12-------13-12----------------------|
g|----12-13--------13-12-------13-12-----------------|
b|--13------------------13----------14-10-9----------|
D|---------------------------------------------------|
A|---------------------------------------------------|
E|---------------------------------------------------|

e|---------12-13-12------------12-13-12----------|
g|----12-13--------13-12--12-13---------13-12----|
b|--14------------------14-----------------------|
D|-----------------------------------------------|
A|-----------------------------------------------|
E|-----------------------------------------------|

e|---------12-13-12-------13-12----------------------|
g|----12-13--------13-12-------13-12-----------------|
b|--13------------------13----------14-10-9*---------|
D|---------------------------------------------------|
A|---------------------------------------------------|
E|---------------------------------------------------|


Chorus B
e|-----------------------------------------------|
g|-----------------------------------------------|
b|--9h10h13(x6)-7h9h13(x6)-9h10h13(x6)-----------|
D|-----------------------------------------------|
A|-----------------------------------------------|
E|-----------------------------------------------|

e|-----------------------------------------------|
g|-----------------------------------------------|
b|---13p10p9h10h13p9p7h9h13p7p6h7h13p6p4\2-------|
D|-----------------------------------------------|
A|-----------------------------------------------|
E|-----------------------------------------------|

e|-----------------------------------------------|
g|-----------------------------------------------|
b|--9h10h13(x6)-7h9h13(x6)-9h10h13(x6)-----------|
D|-----------------------------------------------|
A|-----------------------------------------------|
E|-----------------------------------------------|

e|-----------------------------------------------|
g|-----------------------------------------------|
b|---13p10p9h10h13p9p7h9h13p7p6h7h13p6p4\2-------|
D|---------------------------------------2-------|
A|---------------------------------------0-------|
E|---------------------------------------0-------|


Sweep Section

e|--12------12------12------12------12------12------12------12----------|
g|----13--13--13--13--13--13--13--13--12--12--12--12--12--12---12--12---|
b|------14------14------14------14------13------13------13-------13-----|
D|----------------------------------------------------------------------|
A|----------------------------------------------------------------------|
E|----------------------------------------------------------------------|

e|--12------12------12------12-------------------------------------|
g|----13--13--13--13--13--13--13--13-------------------------------|
b|------14------14------14------14--14-16-13-14-10-13-14-----------|
D|-----------------------------------------------------------------|
A|-----------------------------------------------------------------|
E|-----------------------------------------------------------------|

e|--12------12------12------12------12------12------12------12----------|
g|----13--13--13--13--13--13--13--13--12--12--12--12--12--12---12--12---|
b|------14------14------14------14------13------13------13-------13-----|
D|----------------------------------------------------------------------|
A|----------------------------------------------------------------------|
E|----------------------------------------------------------------------|

e|--12------12------12------12-------------------------------------|
g|----13--13--13--13--13--13--13--13-------------------------------|
b|------14------14------14------14--14*~~~~~~~~~~~~~~~~~-----------|
D|-----------------------------------------------------------------|
A|-----------------------------------------------------------------|
E|-----------------------------------------------------------------|


Classical Tapping Section
e|-------------------------------------------------|
g|---5h10h13(x6)5h9h12(x6)5h12h15(x6)5h10h13(x6)---|
b|-------------------------------------------------|
D|-------------------------------------------------|
A|-------------------------------------------------|
E|-------------------------------------------------|

e|---0h10h13(x6)0h9h13(x6)-------------------------|
g|------------------------5h12h15(x6)5h10h13(x6)---|
b|-------------------------------------------------|
D|-------------------------------------------------|
A|-------------------------------------------------|
E|-------------------------------------------------|

e|-------------------------------------------------|
g|---5h10h13(x6)5h9h12(x6)5h12h15(x6)5h10h13(x6)---|
b|-------------------------------------------------|
D|-------------------------------------------------|
A|-------------------------------------------------|
E|-------------------------------------------------|

e|---0h10h13(x6)0h9h13(x6)-------------------------|
g|------------------------5h12h15(x6)5h10h13(x6)---|
b|-------------------------------------------------|
D|-------------------------------------------------|
A|-------------------------------------------------|
E|-------------------------------------------------|


Verse C
e|---------12-13-12------------12-13-12----------|
g|----12-13--------13-12--12-13---------13-12----|
b|--14------------------14-----------------------|
D|-----------------------------------------------|
A|-----------------------------------------------|
E|-----------------------------------------------|

e|---------12-13-12-------13-12----------------------|
g|----12-13--------13-12-------13-12-----------------|
b|--13------------------13----------14-10-9*---------|
D|---------------------------------------------------|
A|---------------------------------------------------|
E|---------------------------------------------------|

e|---------12-13-12------------12-13-12----------|
g|----12-13--------13-12--12-13---------13-12----|
b|--14------------------14-----------------------|
D|-----------------------------------------------|
A|-----------------------------------------------|
E|-----------------------------------------------|

e|---------12-13-12-------13-12----------------------|
g|----12-13--------13-12-------13-12-----------------|
b|--13------------------13----------14-10-9*---------|
D|---------------------------------------------------|
A|---------------------------------------------------|
E|---------------------------------------------------|


Chorus C
e|-----------------------------------------------|
g|-----------------------------------------------|
b|--9h10h13(x6)-7h9h13(x6)-9h10h13(x6)-----------|
D|-----------------------------------------------|
A|-----------------------------------------------|
E|-----------------------------------------------|

e|-----------------------------------------------|
g|---13p10p9h10h13p9p7h9h13p7p6h7h13p6p4---------|
b|-----------------------------------------------|
D|-----------------------------------------------|
A|-----------------------------------------------|
E|-----------------------------------------------|

e|-----------------------------------------------|
g|-----------------------------------------------|
b|--9h10h13(x6)-7h9h13(x6)-9h10h13(x6)-----------|
D|-----------------------------------------------|
A|-----------------------------------------------|
E|-----------------------------------------------|

e|-----------------------------------------------|
g|-----------------------------------------------|
b|---13p10p9h10h13p9p7h9h13p7p6h7h13p6p4\2-------|
D|-----------------------------------------------|
A|-----------------------------------------------|
E|-----------------------------------------------|


Verse D
e|---------12-13-12------------12-13-12----------|
g|----12-13--------13-12--12-13---------13-12----|
b|--14------------------14-----------------------|
D|-----------------------------------------------|
A|-----------------------------------------------|
E|-----------------------------------------------|

e|---------12-13-12-------13-12----------------------|
g|----12-13--------13-12-------13-12-----------------|
b|--13------------------13----------14-10-9*---------|
D|---------------------------------------------------|
A|---------------------------------------------------|
E|---------------------------------------------------|

e|---------12-13-12------------12-13-12----------|
g|----12-13--------13-12--12-13---------13-12----|
b|--14------------------14-----------------------|
D|-----------------------------------------------|
A|-----------------------------------------------|
E|-----------------------------------------------|

e|---------12-13-12-------13-12----------------------|
g|----12-13--------13-12-------13-12-----------------|
b|--13------------------13----------14-10-9*V--------|
D|---------------------------------------------------|
A|---------------------------------------------------|
E|---------------------------------------------------|


Chorus D
e|-----------------------------------------------|
g|-----------------------------------------------|
b|--9h10h13(x6)-7h9h13(x6)-9h10h13(x6)-----------|
D|-----------------------------------------------|
A|-----------------------------------------------|
E|-----------------------------------------------|

e|-----------------------------------------------|
g|-----------------------------------------------|
b|---13p10p9h10h13p9p7h9h13p7p6h7h13p6p4\2-------|
D|-----------------------------------------------|
A|-----------------------------------------------|
E|-----------------------------------------------|

e|-----------------------------------------------|
g|-----------------------------------------------|
b|--9h10h13(x6)-7h9h13(x6)-9h10h13(x6)-----------|
D|-----------------------------------------------|
A|-----------------------------------------------|
E|-----------------------------------------------|

e|-----------------------------------------------|
g|-----------------------------------------------|
b|---13p10p9h10h13p9p7h9h13p7p6h7h13p6p4\2~~~~~~~|
D|---------------------------------------2~~~~~~~|
A|---------------------------------------0~~~~~~~|
E|---------------------------------------0~~~~~~~|

e|---------12-13-12------------------------------|
g|----12-13--------13-12-------------------------|
b|--14------------------14-2---4---5-------2~~~~~|
D|-------------------------2---4---5-------2~~~~~|
A|-------------------------0---2---3-------0~~~~~|
E|-------------------------0---2---3-------0~~~~~|



Legend:
h: Hammer-On
p: Pull-Off
/: Slide
~: Vibrato 
V: Vibrato Dip
*: Pinch Harmonic
Tap to rate this tab
 
# A B C D E F G H I J K L M N O P Q R S T U V W X Y Z