Song name
# A B C D E F G H I J K L M N O P Q R S T U V W X Y Z

Misc Unsigned Bands - The Jeremiah Hatfield Project - Starry Night tab

Starry Night by the Jeremiah Hatfield Project


  Intro/Verse                     * here slide back to the beginning.
e--------------------------------------|
B--------------------------------------|
G---8-8-x---8--\-----3-/-7-----7-7-----|(*)
D---8-8-x---8--\-----3-/-7-----7-7-----|(*)
A-------x------------------------------|
E-8-----x-8---(8)--3-------6-6---------|

  On the fourth time.
e--------------------------------------------|
B--------------------------------------------|
G---8-8-x---8--\-----3---3-------------------|
D---8-8-x---8--\-----3---3----3--3--3--3-3-3-|
A-------x---------------------3--3--3--3-3-3-|
E-8-----x-8---(8)--3---3------1--1--1--1-1-1-|


Chorus
Strummed chords
     A       D
e---(0)--/---0----|
B---(0)--/---0----|
G----5---/---11---|
D----5---/---0----|
A--------/---12---|
E----5---/---10---|

and again on the fourth time
e-(0)---------------------|
B-(0)---------------------|
G--5---3-----3/5----5/7---|
D--5---3-----3/5----5/7---|
A-------------------------|
E--5---3---3--(5)-5-------|
Tap to rate this tab
 
# A B C D E F G H I J K L M N O P Q R S T U V W X Y Z