Song name
# A B C D E F G H I J K L M N O P Q R S T U V W X Y Z

Misc Unsigned Bands - The Electrines - Figments Of Heaven tab

-------------------------------------------------------------------------------
			     FIGMENTS OF HEAVEN - The Electrines
-------------------------------------------------------------------------------
Tabbed by: Sasha Jakob


Tuning: Standard


Intro solo

e|---9------------------------------------0--------------------------------------|
B|---12b14---------------12br13-----------9----9h10-9----7~~~~~~-----------------|
G|--------------11--11-----------9~~~~~------------------------------------------|
D|-------------------------------------------------------------------------------|
A|-------------------------------------------------------------------------------|
E|-------------------------------------------------------------------------------|


Chorus
e|-----------12br13------12b13-12---12---12--10--12br13--10--12------------------|
B|----11-11----------9------------------------------------------11---------------|
G|-------------------------------------------------------------------------------|
D|-------------------------------------------------------------------------------|
A|-------------------------------------------------------------------------------|
E|-------------------------------------------------------------------------------|

Pretty easy!  Not a whole lot of solo in this one.


************************************

| /   slide up
| \   slide down
| h   hammer-on
| p   pull-off
| ~   vibrato
| +   harmonic
| x   Mute note
| b   Bend
| pb  Pre-bend
| br  Bend release
| pbr Pre-bend release
| brb Bend release bend
Tap to rate this tab
 
# A B C D E F G H I J K L M N O P Q R S T U V W X Y Z