Song name
# A B C D E F G H I J K L M N O P Q R S T U V W X Y Z

Misc Unsigned Bands - Emmas Imagination - This Day tab

-------------------------------------------------------------------------------
	      This Day - Emma's Imagination (Must Be the Music)

-------------------------------------------------------------------------------
Tabbed by: Jake998
Email:Whatthehellbassist@hotmail.co.uk

Tuning: D Standard.

intro

 d----0----0----0----0----0----0----0----0-|
 A----0----0----0----0----0----0----0----0-|
 F-----------------------------------------|
 C-----------------------------------------|
 G--7----7----7----7----7----7----7---7----|
 D-----------------------------------------|


Verse 1


 d----0----0----0----0----0----0----0----0-|
 A----0----0----0----0----0----0----0----0-|
 F-----------------------------------------|
 C-----------------------------------------|
 G--7----7----7----7----0----0----0---0----|
 D-----------------------------------------|


 d----0----0----0----0----0----0----0----0-|
 A----0----0----0----0----0----0----0----0-|
 F-----------------------------------------|
 C-----------------------------------------|
 G--7----7----7----7----7----7----7---7----|
 D-----------------------------------------|


 d----0----0----0----0----0----0----0----0-|
 A----0----0----0----0----0----0----0----0-|
 F-----------------------------------------|
 C-----------------------------------------|
 G--7----7----7----7----0----0----0---0----|
 D-----------------------------------------|


 d----0----0----0----0----0----0----0----0-|
 A----0----0----0----0----0----0----0----0-|
 F-----------------------------------------|
 C-----------------------------------------|
 G--7----7----7----7----7----7----7---7----|
 D-----------------------------------------|

Pre Chorus

 d----0----0----0----0----0----0----0----0-|
 A----0----0----0----0----0----0----0----0-|
 F-----------------------------------------|
 C-----------------------------------------|
 G--4----4----4----4----2----2----2---2----|
 D-----------------------------------------|


 d----0----0----0----0----0----0----0----0-|
 A----0----0----0----0----0----0----0----0-|
 F-----------------------------------------|
 C-----------------------------------------|
 G--0----0----0----0----0----0----0---0----|
 D-----------------------------------------|


 d----0----0----0----0----0----0----0----0-|
 A----0----0----0----0----0----0----0----0-|
 F-----------------------------------------|
 C-----------------------------------------|
 G--4----4----4----4----2----2----2---2----|
 D-----------------------------------------|


 d----0----0----0----0--0--|
 A----0----0----0----0--0--|
 F-------------------------|
 C-------------------------|   Silence During Last Line.
 G--0----0----0----0----0--|
 D-------------------------|

Chorus 1

 d----0----0----0----0----0----0----0----0-|
 A----0----0----0----0----0----0----0----0-|
 F-----------------------------------------|
 C-----------------------------------------|
 G--7----7----7----7----2----2----2---2----|
 D-----------------------------------------|

 d-----------------------------------------|
 A-----------------------------------------|
 F-----------------------------------------|
 C-----------------------------------------|
 G--0-Hold Note>>>>>>>>>>>>----------------|
 D-----------------------------------------|

Verse 2

 d----0----0----0----0----0----0----0----0-|
 A----0----0----0----0----0----0----0----0-|
 F-----------------------------------------|
 C-----------------------------------------|
 G--7----7----7----7----0----0----0---0----|
 D-----------------------------------------|


 d----0----0----0----0----0----0----0----0-|
 A----0----0----0----0----0----0----0----0-|
 F-----------------------------------------|
 C-----------------------------------------|
 G--7----7----7----7----7----7----7---7----|
 D-----------------------------------------|


 d----0----0----0----0----0----0----0----0-|
 A----0----0----0----0----0----0----0----0-|
 F-----------------------------------------|
 C-----------------------------------------|
 G--7----7----7----7----0----0----0---0----|
 D-----------------------------------------|


 d----0----0----0----0----0----0----0----0-|
 A----0----0----0----0----0----0----0----0-|
 F-----------------------------------------|
 C-----------------------------------------|
 G--7----7----7----7----7----7----7---7----|
 D-----------------------------------------|

Pre Chorus

 d----0----0----0----0----0----0----0----0-|
 A----0----0----0----0----0----0----0----0-|
 F-----------------------------------------|
 C-----------------------------------------|
 G--4----4----4----4----2----2----2---2----|
 D-----------------------------------------|


 d----0----0----0----0----0----0----0----0-|
 A----0----0----0----0----0----0----0----0-|
 F-----------------------------------------|
 C-----------------------------------------|
 G--0----0----0----0----0----0----0---0----|
 D-----------------------------------------|


 d----0----0----0----0----0----0----0----0-|
 A----0----0----0----0----0----0----0----0-|
 F-----------------------------------------|
 C-----------------------------------------|
 G--4----4----4----4----2----2----2---2----|
 D-----------------------------------------|


 d----0----0----0----0----0----0----0----0--|
 A----0----0----0----0----0----0----0----0--|
 F------------------------------------------|
 C------------------------------------------|
 G--0----0----0----0------0----0----0----0--|
 D------------------------------------------|

Chorus 2

 d----0----0----0----0----0----0----0----0-|
 A----0----0----0----0----0----0----0----0-|
 F-----------------------------------------|
 C-----------------------------------------|
 G--4----4----4----4----6----6----6---6----|
 D-----------------------------------------|


 d----0----0----0----0----0----0----0----0-|
 A----0----0----0----0----0----0----0----0-|
 F-----------------------------------------|
 C-----------------------------------------|
 G-----------------------------------------|
 D--2----2----2----2----2----2----2----2---|


 d----0----0----0----0----0----0----0----0-|
 A----0----0----0----0----0----0----0----0-|
 F-----------------------------------------|
 C-----------------------------------------|
 G--4----4----4----4----6----6----6---6----|
 D-----------------------------------------|


 d----0----0----0----0----0----0----0----0-|
 A----0----0----0----0----0----0----0----0-|
 F-----------------------------------------|
 C-----------------------------------------|
 G-----------------------------------------|
 D--2----2----2----2----2----2----2----2---|


Outro

 d----0----0----0----0----0----0----0----0-|
 A----0----0----0----0----0----0----0----0-|
 F-----------------------------------------|
 C-----------------------------------------|
 G---------------------0----0----0----0----|
 D-4----4----4----4------------------------|


 d----0----0----0----0----0----0----0----0-|
 A----0----0----0----0----0----0----0----0-|
 F-----------------------------------------|
 C-----------------------------------------|
 G---------------------0----0----0----0----|
 D-4----4----4----4------------------------|


 d----0----0----0----0----0----0----0----0-|
 A----0----0----0----0----0----0----0----0-|
 F-----------------------------------------|
 C-----------------------------------------|
 G---------------------0----0----0----0----|
 D-4----4----4----4------------------------|


 d--12+ Let Ring --------------------------|
 A-----------------------------------------|
 F-----------------------------------------|
 C-----------------------------------------|
 G-----------------------------------------|
 D-----------------------------------------|



************************************

| /   slide up
| \   slide down
| h   hammer-on
| p   pull-off
| ~   vibrato
| +   harmonic
| x   Mute note
| b   Bend
| pb  Pre-bend
| br  Bend release
| pbr Pre-bend release
| brb Bend release bend

************************************
Tap to rate this tab
 
# A B C D E F G H I J K L M N O P Q R S T U V W X Y Z