Song name
# A B C D E F G H I J K L M N O P Q R S T U V W X Y Z

Misc Unsigned Bands - Nicolascage09 - Kids tab

Play with Capo on the 2nd fret for playing the (in this way more or less) original song, 
6th fret for the version of nicolascage09.
Tabs and Chords are not perfect (varies at some passages), but ok for orientate. Just 
& listen while playing; have fun :)


Intro & Riff:

   Em              C              G               D/F#
e|-----------------0---2.0-----------------------------------------|
h|---------0---3------------3---0-----0---0---0--------------------|
g|-0---2---0---0-----0----0---0-----0---0---0---0-2---2---2---2p0--| x 3
D|---2---2---2---2----------------------------------0---0---0----0-|
A|-----------------3-----------------------------------------------|
E|-0------------------------------3---------------2----------------|

   Em              C              G               D7/F#
e|----------------------------------------------------------------|
h|---------0--------------------------------------1p0-------------|
g|-0---2-------2---0---2.0------------0---0---0------2-0----2-0---|
D|---2---2---2---2---2------2-------0---0---0---0---------------4-|
A|-----------------3------3---3-----------------------------------|
E|-0------------------------------3---------------2---------------|


Verse 1:

Em           C
 You were a child
                  G               D/F#
Crawling on your knees toward him
Em                C
 Making momma so proud
G                      D/F#
 But your voice is too loud

Em  C                  G          D/F# (<-- First part of riff)
     We like to watch you laughing
Em                        C
 Picking insects off of plants
 G                       D/F#
No time to think of consequences


Chorus (play full riff):

Em            C
 Control yourself
                    G           D/F#
Take only what you need from it
Em            C
 A family of trees wanting
G             D/F#
 to be haunted


Repeat chorus.


Verse 2:

Em             C
 The water is warm
                 G          D/F#
But it's sending me shivers
Em          C
 A baby is born
G                 D/F#
 Crying out for attention

Em         C
 Memories fade
                        G           D/F#
Like looking through a fogged mirror
Em                           C
Decisions too Decisions are made and not bought
      G                            D
But I thought this wouldn't hurt a lot I guess not


4x Chorus (with riff):

Em            C
 Control yourself
                    G           D/F#
Take only what you need from it
Em            C
 A family of trees wanting
G             D/F#
 to be haunted

Em C G D/F#
Duu-du-du-du-...

Em            C
 Control yourself
                    G           D/F#
Take only what you need from it
Em            C
 A family of trees wanting
G             D/F#
 to be haunted

Em            C
 Control yourself
                    G           D/F#
Take only what you need from it
Em            C
 A family of trees wanting
G             D/F#
 to be haunted
Em
Tap to rate this tab
 
# A B C D E F G H I J K L M N O P Q R S T U V W X Y Z