Song name
# A B C D E F G H I J K L M N O P Q R S T U V W X Y Z

Misc Unsigned Bands - Die For Me - Pain And Suffering tab

-------------------------------------------------------------------------------
			     Pain and Suffering - Die For Me
-------------------------------------------------------------------------------
Tabbed by:ST
Email:

Tuning:DADGBe

This is only guitar one for right now, guitar 2 will be coming soon
e|-----------------------------------------------------------------------------|
B|-----------------------------------------------------------------------------|
G|---------9------10-------12------10------9------9h10p9-----------------------|
D|---0--0------0-------0--------0------0-------0-------------------------------|
A|-----------------------------------------------------------------------------|
D|-----------------------------------------------------------------------------|
                                                                               x2
e|---------------------------------------------------------------------------|
B|---------------------------------------------------------------------------|
G|---------9------9h10-------------9-------9h10-----12-10-9------------------|
D|---8-8------8-----------10--10-------10--------------------12-10-8-7-------|
A|---------------------------------------------------------------------------|
D|---------------------------------------------------------------------------|
       p          p
e|---------------------------------------------------------------------------|
B|---------------------------------------------------------------------------|
G|---------------------------------------------------------------------------|
D|--0--0-------0--0--------7-5------------8--8----------------10-------------|
A|--0--0--x13--0--0--x6--------8-7-5------8--8--x6--10p8-12p8----------------|
E|--0--0-------0--0------------------8-7--8--8-------------------------------|
       p             p  p                                                       x2
e|---------------------------------------------------------------------------|
B|---------------------------------------------------------------------------|
G|---------------------------------------------------------------------------|
D|--10-10------12p10-10-10---------------------------------------------------|
A|--10-10--x6--------10-10-12p10---------------------------------------------|
E|--10-10------------10-10---------------------------------------------------|
      p  ppppp    p      p ppppp
e|---------------------------------------------------------------------------|
B|---------------------------------------------------------------------------|
G|---------------------------------------------------------------------------|
D|--0----------0--0--0-0----------0-----------------10---------------------- |
A|--0----------0--0--0-0----------0---x2--10p8-12p8--------------------------|
E|--0-0--00000-0--0--0-0-0-00000--0------------------------------------------|

e|-------------------------------------------------------------------------------|
B|-------------------------------------------------------------------------------|
G|-------------------------------------------------------------------------------|
D|--10----12---------------------------------------------------------------------|
A|--8--h--10--h------------------------------------------------------------------|
E|--8-----10---------------------------------------------------------------------|
          p p p
e|---------------------------------------------------------------------------|
B|---------------------------------------------------------------------------|
G|---------------------------------------------------------------------------|
D|-0-------0-0-0-------------------------------------------------------------| x8
A|-0-h-----0-0-0--h----------------------------------------------------------|
E|-0-------0-0-0-------------------------------------------------------------|

e|---------------------------------------------------------------------------|
B|---------------------------------------------------------------------------|
G|---------------------------------------------------------------------------|
D|---------------------------------------------------------------------------|
A|---------------------------------------------------------------------------|
E|---------------------------------------------------------------------------|
After this just repeat the intro 4 times and thats the song :D

************************************

| /   slide up
| \   slide down
| h   hammer-on
| p   pull-off
| ~   vibrato
| +   harmonic
| x   Mute note
| b   Bend
| pb  Pre-bend
| br  Bend release
| pbr Pre-bend release
| brb Bend release bend

************************************
Tap to rate this tab
 
# A B C D E F G H I J K L M N O P Q R S T U V W X Y Z