Misc Unsigned Bands - Her Bright Skies - Heartbreaker tab

Band: Her Bright Skies
Song: Heartbreaker
Album: Making A Scene
Tuning: Drop C#(C#,G#,C#,F#,A#,D#)

Her Bright Skies is a swedish pop-punk-rock band. I've not figured out the entire 
song, but if I do, I'll post it here:)
PS. This is my first tab. evar.

First guitar, use much equalizer:
D#|-----------10s12--------|-------10s12----------------|x 'til verse starts
A#|------------------------|-------------10h12-8h10-----|
F#|-12h9p12----------------|-12p9-----------------------|
C#|------------------------|----------------------------|
G#|------------------------|----------------------------|
C#|------------------------|----------------------------|

Second Guitar(Easiest part:             Those are 10's
D#|--------------------------|------------------------------------|x2
A#|--------------------------|------------------------------------| 
F#|--------------------------|------------------------------------|
C#|-2---5---0~---0000000-----|-9----9----10~-10101010101010-------|
G#|-2---5---0~---0000000-----|-1010-1010-10~-10101010101010-------|
C#|-2---5---0~---0000000-----|-9-9--9-9--10~-10101010101010-------|
                 .......         .    .      . . . . . . .

D#|--------------------------|------------------------------------|
A#|--------------------------|------------------------------------|
F#|--------------------------|------------------------------------|
C#|-222-555-0000000000-------|-9-9-9-9-9-9-9-9--10101010101010-555|
G#|-222-555-0000000000-------|-1010101010101010-10101010101010-555|
C#|-222-555-0000000000-------|-9-9-9-9-9-9-9-9--10101010101010-555|


D#|--------------------------|------------------------------------|
A#|--------------------------|------------------------------------|
F#|--------------------------|------------------------------------|
C#|-222-555-0000000000-------|-9----9----10~--10101010-555\-------|
G#|-222-555-0000000000-------|-1010-1010-10~--10101010-555\-------|
C#|-222-555-0000000000-------|-9-9--9-9--10~--10101010-555\-------|
                                 .    .    
Tap to rate this tab
 
# A B C D E F G H I J K L M N O P Q R S T U V W X Y Z