Song name
# A B C D E F G H I J K L M N O P Q R S T U V W X Y Z

Misc Unsigned Bands - Elliot Mercier - Hold Your Breth tab

			     Hold Your Breath - By Elliot Mercier
-------------------------------------------------------------------------------
Tabbed by: Elliot Mercier
Email: just find me on facebook

INTRO (Repeat 3 times)

e|--------------------------------------------------------------------------|
B|--------------------------------------------------------------------------|
G|--------------------------------------------------------------------------|
D|---5/3\5h7---7-7-7-5-5----------------------------------------------------|
A|-5-----------5-5-5-3-3----------------------------------------------------|
D|--------------------------------------------------------------------------|

Distorted Intro(Repeat unmuted notes 6 times)

e|---------------------------------------------------------------------------|
B|---------------------------------------------------------------------------|
G|---------------------------------------------------------------------------|
D|---------------------------------------------------------------------------|
A|-7-7-7-5-5-5-3-3-3-2-2---7-7-7--5-5-5-3-3-3-2-2-2--------------------------|
D|-------------------------7-7-7--5-5-5-3-3-3-2-2-2--------------------------|
pm---------------------------------------------------------------------------|

VERSE-
e|---------------------------------------------------------------------------|
B|---------------------------------------------------------------------------|
G|-2-------------------------------------------------------------------------|
D|-2-------------------------------------------------------------------------|
A|-0-------------------------------------------------------------------------|
D|-----0-0-0-0-0-0-0-0-0-0-0-0-0-0-------------------------------------------|
------pm---------------------------------------------------------------------|

Pre CHORUS (X2)
e|--------------------------------------------------------------------------|
B|--------------------------------------------------------------------------|
G|--------------------------------------------------------------------------|
D|-7-7-7-5-5-5-5-5-0-3-0-3--------------------------------------------------|
A|-7-7-7-5-5-5-5-5-0-3-0-3--------------------------------------------------|
D|-7-7-7-5-5-5-5-5-0-3-0-3--------------------------------------------------|

CHORUS (X6)
e|--------------------------------------------------------------------------|
B|--------------------------------------------------------------------------|
G|-9-9-9-9-9-9-9-9-9-9--10-10-10-10-10--------------------------------------|
D|-9-9-9-9-9-9-9-9-9-9--10-10-10-10-10--------------------------------------|
A|-7-7-7-7-7-8-8-8-8-8---8-8--8--8--8---------------------------------------|
D|--------------------------------------------------------------------------|

CHORUS OUTRO
e|--------------------------------------------------------------------------|
B|--5h7---------------------------------------------------------------------|
G|--------------------------------------------------------------------------|
D|-------7-3-2-7-3-2-3-0----------------------------------------------------|
A|-------7-3-2-7-3-2-3-0----------------------------------------------------|
D|-------7-3-2-7-3-2-3-0----------------------------------------------------|

GO TO VERSE THEN TO PRECHORUS AND CHORUS

BRIDGE (ACOUSTIC)
e|-----------------12+-------------------12-10-12-12-10-12-12---------------|
B|--------------12+------12+----12+-12+-----------------------10-7-5--------|
G|-------7+---12+-------12+---12+-12+--------------------------------6-7-6--|
D|-----7+------------12+----12+-12+-----------------------------------------|
A|---5+---------------------------------------------------------------------|
D|-0------------------------------------------------------------------------|

e|--------------------------------------------------------------------------|
B|-5-3-5--------5-3-5b------------------------------------------------------|
G|-------6-7-6--------------------------------------------------------------|
D|--------------------------------------------------------------------------|
A|--------------------------------------------------------------------------|
D|--------------------------------------------------------------------------|

SOLO WILL BE MADE LATER
GO TO PRECHORUS AND CHORUS

OUTRO
e|--------------------------------------------------------------------------|
B|--------------------------------------------------------------------------|
G|--------------------------------------------------------------------------|
D|--------------------------------------------------------------------------|
A|--------------7-7-7-7-7-7--------------5-5-5-5-5-5--------3-3-3--7-3-2-3--|
D|--7-7-7-7-7-7--------------5-5-5-5-5-5--------------3-3-3--------7-3-2-3--|

| /   slide up
| \   slide down
| h   hammer-on
| p   pull-off
| ~   vibrato
| +   harmonic
| x   Mute note
| b   Bend
| pb  Pre-bend
| br  Bend release
| pbr Pre-bend release
| brb Bend release bend

************************************
Tap to rate this tab
 
# A B C D E F G H I J K L M N O P Q R S T U V W X Y Z