Song name
# A B C D E F G H I J K L M N O P Q R S T U V W X Y Z

Misc Unsigned Bands - Vim Para Adorar - Te tab

            ++++++VIM PARA ADORAR-TE++++++++


INTRO
    
    Luz Do Mundo....
e|--------------------------------------------------|
B|--7-7-8-5-5-7-8-8-8-7-5------7-7-8-5-5-7----------|
G|------------------------7---------------7---------|  X2
D|--------------------------------------------------|
A|--------------------------------------------------|
E|--------------------------------------------------|

    Vim Para Adorar-Te....
e|--------------------------------------------------|
B|-8-7-7-5-7-7--8-7-7-5-5-5--8-7-7-5-7-7-7-10-------|
G|--------------------------------------------7-----|  X2
D|--------------------------------------------------|
A|--------------------------------------------------|
E|--------------------------------------------------|

    Eterno Rei....
e|--------------------------------------------------|
B|--7-7-8-5-5-7-8-8-8-7-5------7-7-8-5-5-7----------|
G|------------------------7---------------7---------|  X2
D|--------------------------------------------------|
A|--------------------------------------------------|
E|--------------------------------------------------|

    Eu Nunca Saberei....
e|--------------------------------------------------|
B|------------10-8-7---------------10-8-7-----------|
G|--7-9--9-11--------7---7-9--9-11--------7---------|
D|--------------------------------------------------|
A|--------------------------------------------------|
E|--------------------------------------------------|
Tap to rate this tab
 
# A B C D E F G H I J K L M N O P Q R S T U V W X Y Z