Misc Unsigned Bands - Ssd - Screw tab

Band - SSD
Song - Screw
Album - The Kids Will Have Their Say

Tabbed By - SumFX (Tyler Freear)

0.22 Secs O'Power By The Mighty SSD!

Riff 1
|---------------|
|---------------|
|---------------|
|-99--77--5555--|
|-99--77--5555--|
|-77--55--3333--|

Riff 2
|---------------|
|---------------|
|-----77--------|
|-55--77--8888--|
|-55--55--8888--|
|-33------6666--|

Structure
Riff 1 x4
Riff 2 x4
Riff 1 x4
Riff 2 x4

Good Stuff!
Tap to rate this tab
 
# A B C D E F G H I J K L M N O P Q R S T U V W X Y Z