Misc Unsigned Bands - Ssd - United tab

Band - SSD
Song - United
Album - The Kids Will Have Their Say

Tabbed By - SumFX (Tyler Freear)

0.46 Secs, 2 Riffs....Hardcore Enough?

Riff 1
|------------|
|------------|
|-4444--6-7--|
|-4444--6-7--|
|-2222--4-5--|
|------------|

Riff 2
|-------------|
|-------------|
|----77-------|
|-55-77-7777--|
|-55-55-7777--|
|-33----5555--|

Structure
Riff 1 x8
Riff 2 x4
Riff 1 x4
Riff 2 x4
Riff 1 x4
Riff 2 x4
Riff 1 x8

Lovely Stuff!
Tap to rate this tab
 
# A B C D E F G H I J K L M N O P Q R S T U V W X Y Z