Song name
# A B C D E F G H I J K L M N O P Q R S T U V W X Y Z

Misc Unsigned Bands - Ssd - Va tab

Band - SSD
Song - VA
Album - The Kids Will Have Their Say

Tabbed By - SumFX (Tyler Freear)

Cool Song By SSD From Their Best Record!

Riff 1
|-------------------|
|-------------------|
|-99--66------------|
|-99--66--66666666--|
|-77--44--66666666--|
|---------44444444--|

Riff 2
|-----------------|
|-----------------|
|-9--10---9--10---|
|-9--10---9--10---|
|-7--8----7--8----|
|-----------------|

Structure
Riff 1 x8
Riff 2 x2
Riff 1 x8
Riff 2 x2
Riff 1 x6

There You Go, Easy :)
Tap to rate this tab
 
# A B C D E F G H I J K L M N O P Q R S T U V W X Y Z