Song name
# A B C D E F G H I J K L M N O P Q R S T U V W X Y Z

Misc Unsigned Bands - Despise Thi God - Lock The Front Door tab

Artist-Despise This God
Song- Lock The Front Door

intro
1-----------------------------------------------------|
2-----------------------------------------------------|
3-----------------------------------------------------|
4-7-77-7-77-7-7-7-77-7-77-7-7-77-7-77-7-7-7-77-7-77-7-|
5-5-55-5-55-5-5-5-55-5-55-5-5-55-5-55-5-5-5-55-5-55-5-|
    ..   ..   .   ..   ..     ..   ..   .   ..   ..
6-----------------------------------------------------

1-----------------------------------------------------|
2-----------------------------------------------------|
3-----------------------------------------------------|
4-5-55-5-55-5-5-5-55-5-55-5-5-55-5-55-5-5-5-55-5-55-5-|
5-3-33-3-33-3-3-3-33-3-33-3-3-33-3-33-3-3-3-33-3-33-3-|
    ..   ..   .   ..   ..     ..   ..   .   ..   ..
6-----------------------------------------------------
                                                       Repeat many times

Intro-Lead

1------------------------------|
2------------------------------|
3-1/7-7-9-10/12-10-9-5/7-9-7h--|
4------------------------------|
5------------------------------|
6------------------------------|


Verse part 1=same as intro

verse part2
1-----------------------------|
2-----------------------------|
3-----------------------------|
4-7777777777777-5555555555555-|
5-5555555555555-3333333333333-|  same chords just with different strumming
6-----------------------------|  and palm muting...

Chorus-Both guitars

1-------------------------------------------------------------------|
2-------------------------------------------------------------------|
3-------------------------------------------------------------------|
4-5---------3--------5--------------------5--------3-------5--------|
5-5---8-7---3--6-5---5--8-7-5-10-8-7-8-7--5--8-7---3--6-5--5--8-7-5-|
6-5---.-.---3--.-.---5--.-.-.-..-.-.-.-.--5--.-.---3--.-.--5--.-.-.-|

1------------------|
2------------------|
3------------------|
4-10-8-7----7------|
5--------10---10-8-|
6------------------|

1------------------------------------------------------------------|
2------------------------------------------------------------------|
3------------------------------------------------------------------|
4-5--------3--------5----------------------------3--------5--------|
5-5--8-7---3--6-5---5--8-7-5-10-8-7-8-7-3--8-7---3--6-5---5--8-7-5-|
6-5--.-.---3--.-.---5----------------------.-.---3--.-.---5--.-.-.-|

1-------------------|
2-------------------|
3-------------------|
4-10-8-7---7--------|
5--------10--10-8-7-|
6-------------------|


Bridge

1----------------------------------------------|
2----------------------------------------------|
3----------------------------------------------|
4-0--------------------x10-x8-x7----x7---------|
5-0-000000000-0-000000-----------x10---x10-x8--|
6-0-000000000-0-000000-------------------------|
    .........   ......

1----------------------------|
2----------------------------|           Repeat 2x
3----------------------------|
4-3-33333333-3-3333-55555555-|
5-3-33333333-3-3333-55555555-|
6---........---....-........-|

Solo

1------15------13------18------16------15-18-16-15-16-15---------|
2-12-13--13-12----15-16---16-15---15-16-----------------16-18-16-|
3----------------------------------------------------------------|
4----------------------------------------------------------------|
5----------------------------------------------------------------|
6----------------------------------------------------------------|

1-----------------------------------------------------------------------|
2-15-16-15-------------------------13--15-------13--15-13-12-13-12------|
3---------16-18--16-15-16----13--15-------13--15------------------13-15-|
4-----------------------------------------------------------------------|
5-----------------------------------------------------------------------|
6-----------------------------------------------------------------------|

1-15-18-17-15-18-17-15-18-17-15-18-17-15-18-17-15-18-17-15-18-17-15-|
2-------------------------------------------------------------------|
3-------------------------------------------------------------------|
4-------------------------------------------------------------------|
5-------------------------------------------------------------------|
6-------------------------------------------------------------------|

1-18-17-15-18-17-15-18-17-15-18-17-15-18-17-15-18-17-15-18-17-15-18-17-15-|
2-------------------------------------------------------------------------|
3-------------------------------------------------------------------------|
4-------------------------------------------------------------------------|
5-------------------------------------------------------------------------|
6-------------------------------------------------------------------------|

1------------------------------|
2------------------------------|
3-12-14-15-15------10-12-13-13-|
4------------------------------|
5------------------------------|
6------------------------------|

other guitar plays the verse during solo


Outro

1-18-17---20-17----18-17-----20-17---|
2------18------18-------18--------18-|
3------------------------------------|
4------------------------------------|  Keep repeating
5------------------------------------|
6------------------------------------|


order of song:

intro{intro solo}
verse 1
chorus
verse 2
chorus
bridge
solo
verse3
chorus
bridge
outro
Tap to rate this tab
 
# A B C D E F G H I J K L M N O P Q R S T U V W X Y Z