Misc Unsigned Bands - The Gregory Brothers - Bed Intruder tab

bed intruder


Written by: The Gregory Brothers  (radrico cover)



He's climbing in your windows
He's snatchin your people up
Tryin to rape em so y'all need to 
hide your kids, hide your wife
hide your kids, hide your wife
hide your kids, hide your wife
and hide your husband 
cuz they're rapin everybody out here

you dont have to come and confess
we're lookin for you
we gon find you
we gon find you
so you can run and tell that
run and tell that
run and tell that, homeboy
home, home, homeboy

we got your t-shirt
you done left fingerprints and all
you are so dumb
you are reall dumb - for real
the man got away leaving behind evidence
i was attacked by some idiot in the projects
so dumb, so dumb, so dumb soo

He's climbing in your windows
He's snatchin your people up
Tryin to rape em so y'all need to 
hide your kids, hide your wife
hide your kids, hide your wife
hide your kids, hide your wife
and hide your husband 
cuz they're rapin everybody out here

you dont have to come and confess
we're lookin for you
we gon find you
we gon find you
so you can run and tell that
run and tell that
run adn tell that, homeboy
home, home, homeboy



Here is pretty much what radrico is doing.

Tune it down a half step
Capo on 4th

        
Main Progression:
|----3---3---2----3------------------------------|
|----3---3---2----1------------------------------|
|----0---0---0----0------------------------------|
|----0---0---2----2------------------------------|
|----2---0---2----3------------------------------|
|----3---2---0----x------------------------------|



we got your t-shirt..

|---xxx--------------xxx-----xxx----xxx---------------|
|---xxx--------------xxx-----xxx----xxx---------------|
|---444--------------555-----xxx----xxx---------------|
|---444--------------555-----555----444---------------|
|---111--------------333-----555----444---------------|
|---xxx--------------xxx-----333----111---------------|



end with picking Main Progression



for comment, question email bakin25@gmail.com


www.thedrunkcanuck.com
Tap to rate this tab
 
# A B C D E F G H I J K L M N O P Q R S T U V W X Y Z